Manson Marilyn - Fight Song Chords & Tabs

 

Fight Song Chords & Tabs

Manson Marilyn Chords & Tabs

Version: 1 Type: Tab 0 ratings
1 star 2 stars 3 stars 4 stars 5 stars
comments

Fight Song Tab

Fight Song Marilyn Manson

This is the main riff of the song which is played during the intro and choruses.

e------------------------------
b------------------------------
g------------------------------
d------------------------------
a---4-4-2-4-7-7----------------
e---2-2-0-2-5-5----------------

This is pretty basic and shouldn't be a problem for you to work out the rhythm!

The next bit is the verses which is just
[ Tab from: http://www.guitartabs.cc/tabs/m/manson_marilyn/fight_song_tab.html ]
e------------------------------
b------------------------------
g------------------------------
d------------------------------
a---4-4-2--4-2-2---------------
e---2-2-0--2-0-0---------------

This is just repeated over and over. The rhythm is also easy to work out.

Finally this is the part of the song where Mazza sings
'And when we were good you just closed your eyes...etc.'you just play

e------------------------------
b------------------------------
g------------------------------
d------------------------------
a--9-----7-----------------------
e--7-----5-----------------------

These two chords are both played once on each line Mazza sings and are played 
really fast when Mazza sings 'The death of one is a tradegy bla bla bla etc.'

So crank up the distortion and play away!
Comments