Manson Marilyn - Disposible Teens Chords & Tabs

 

Disposible Teens Chords & Tabs

Manson Marilyn Chords & Tabs

Version: 1 Type: Tab 0 ratings
1 star 2 stars 3 stars 4 stars 5 stars
comments

Disposible Teens Tab

   
Disposible Teens Guitar Tab
Song By: Marilyn Manson
By Twiggz
twiggy_ramirez_lives@homail.com
Note i dont have the song so dont ask for it, im not into d.l songs before they are released, one of my friends on the other hand, is and i listened to it, and figured it out.
Ok this is for those of you manson fans who are striving to learn song of his not even released new cd.

Tuning Standard
[ Tab from: http://www.guitartabs.cc/tabs/m/manson_marilyn/disposible_teens_tab.html ]
Intro/Chorus
E--------------------------------
B--------------------------------
G-7-7/5\\10-7-7-7/5\\7 x-x---------
D-7-7/5\\10-7-7-7/5\\7-x-x---------
A-5-5/3\\8--5-5-5/3\\5-x-x---------
E--------------------------------
Timing might be off, but these are the notes!!
Extremly easy to play.

Verse
E-----
B-----
G-x-x-
D-x-x-couple times then 
A-x-x-
E-x-x-

E----------------------------
B----------------------------
G-5----------------7/10------
D-5--and sometimes-7/10------
A-3----------------5/8-------
E----------------------------
NOT SURE BOUT THIS PART, just play round with notes!!!!
Comments