Manson Marilyn - Disposable Teens Chords & Tabs

 

Disposable Teens Chords & Tabs

Manson Marilyn Chords & Tabs

Version: 5 Type: Tab 0 ratings
1 star 2 stars 3 stars 4 stars 5 stars
comments

Disposable Teens Tab

   
Disposable Teens
M A R I L Y N   M A N S O N
Tabbed By Aaron Bridgeman (rokken@sicness.net)

http://bogans.arecool.net

TUNING: Drop D (D A D G B e)

KEY:
x = dead note

RIFF 1:
e|----------------------------x-x-x-x-|
B|----------------------------x-x-x-x-|
G|----------------------------x-x-x-x-|
D|-7-7-5--10-10-10-10-10-5-7--x-x-x-x-|
A|-5-5-3--8--8--8--8--8--3-5--x-x-x-x-|
D|----------------------------x-x-x-x-|
[ Tab from: http://www.guitartabs.cc/tabs/m/manson_marilyn/disposable_teens_tab_ver_5.html ]
RIFF 2:
e|------x-x-x-x-x--x---------x-x-x-x-x--x--x-x-x-|
B|------x-x-x-x-x--x---------x-x-x-x-x--x--x-x-x-|
G|------x-x-x-x-x--x---------x-x-x-x-x--x--x-x-x-|
D|------x-x-x-x-x--x---------x-x-x-x-x--x--x-x-x-|
A|-0----x-x-x-x-x--x--0-0----x-x-x-x-x--x--x-x-x-|
D|-0----x-x-x-x-x--x--0-0----x-x-x-x-x--x--x-x-x-|

RIFF 2:
e|------x-x-x-x-x--x---------x-x-x-x-------|
B|------x-x-x-x-x--x---------x-x-x-x-------|
G|------x-x-x-x-x--x---------x-x-x-x-------|
D|------x-x-x-x-x--x---------x-x-x-x-------|
A|-0----x-x-x-x-x--x--0-0----x-x-x-x-3--3--|
D|-0----x-x-x-x-x--x--0-0----x-x-x-x-3--3--|

BREAKDOWN:
e|------------------------------------------|
B|------------------------------------------|
G|------------------------------------------|
D|-5-5-5-5-5-5-5-5--------------------------|
A|-3-3-3-3-3-3-3-3- you get the picture... -|
D|------------------------------------------|

Hate the guy, like the song
Comments