Manson Marilyn - Disposable Teens Chords & Tabs

 

Disposable Teens Chords & Tabs

Manson Marilyn Chords & Tabs

Version: 2 Type: Tab 0 ratings
1 star 2 stars 3 stars 4 stars 5 stars
comments

Disposable Teens Tab

Artist: Marilyn Manson
Song: Disposable Teens
Tabbed By: John leadman 

Drop D Tuning (DAdGBe)

intro: (repeat)
e-----------------------------------]
b-----------------------------------]
G|7-7-5-7-10-7--7-7-5-7-7-X-X-X-----]
D|7-7-5-7-10-7--7-7-5-7-7-X-X-X-----]
A|5-5-3-5--8-5--5-5-3-5-5-X-X-X-----]
d-----------------------------------]

[ Tab from: http://www.guitartabs.cc/tabs/m/manson_marilyn/disposable_teens_tab_ver_2.html ]
Post intro riff:
e----------------------------------------------------------------]
b----------------------------------------------------------------]
g----------------------------------------------------------------]
d|0-0-X-X-X-0-0-0-0-X-X-X-X-X-X-0-0-X-X-X-0-0-0-0-3-3-5-3--------]
A|0-0-X-X-X-0-0-0-0-X-X-X-X-X-X-0-0-X-X-X-0-0-0-0-3-3-5-3--------]
D|0-0-X-X-X-0-0-0-0-X-X-X-X-X-X-0-0-X-X-X-0-0-0-0-3-3-5-3--------]
This should be right


intro riff is played while Mansons says "yea yea yea yea yea yea" it is also the chorus riff

When Manson sings "we're disposable teens" you play the post chorus riff

high riff
e|10/16~~~~~------------]
b-----------------------]
g-----------------------]
d-----------------------]

"the more that you fear us, the bigger we get"
e----------------------------------]
b----------------------------------]
G|5-5-5-5-5-5-5-5-5-5-5-5-5-6-7----]
D|5-5-5-5-5-5-5-5-5-5-5-5-5-6-7----]
A|3-3-3-3-3-3-3-3-3-3-3-3-3-4-5----]

You might have to play more threes/fives than I put But you'll figure it out

Comments