Manson Marilyn - Disassociative Chords & Tabs

 

Disassociative Chords & Tabs

Manson Marilyn Chords & Tabs

Version: 2 Type: Tab 0 ratings
1 star 2 stars 3 stars 4 stars 5 stars
comments

Disassociative Tab

   
Disassociative 
Marilyn Manson 




The version I had was not frendly to me since I play in dropped D- so
I change it to a johnny friendly song

Here it is:

Guitar tuning:  Dropped D  (D A D G B E)


Intro:(low humming noises from amp)

E|----0---------------------------------------------------|
B|------0-------------------------------------------------|
G|--------------------------------------------------------|     Repeat 2x
D|---------------12-----------------10-------10-----------|
A|0-7---------12-----10----------10-------10-----9--7-7---|
D|---------12--------10-----9-12-------10--------9--7-7---|


Bridge:
[ Tab from: http://www.guitartabs.cc/tabs/m/manson_marilyn/disassociative_tab_ver_2.html ]
E|----------------------|
B|----------------------|
G|----------------------|     Repeat 2x
D|----------------------|
A|-9-----7-----5-----5--|
D|-9-----7-----5-----5--|

The nervous systems down, the nervous systems down I know....


Chorus:

E|------------------------------------------------------------|
B|------------------------------------------------------------|
G|-5-5-5-5-5-5-5-5-/4-4-4-4-4-4-4-4-/7-7-7-7-7-7-7-7-/4-5-4-2-|
D|-5-5-5-5-5-5-5-5-/2-2-2-2-2-2-2-2-/5-5-5-5-5-5-5-5-/2-2-2-2-|
A|-3-3-3-3-3-3-3-3-/0-0-0-0-0-0-0-0-/3-3-3-3-3-3-3-3-/0-0-0-0-|
D|------------------------------------------------------------|
                                                     (play this(above)to the vocals when he  
                                                      sings: "..spa-ee-aa-ace")


There is one litle part after the chorus which is barely noticeable 
that I'm trying to find outbut it's not too important, but sounds neat.

That's pretty much all there is to it.  THANK YOU!!!!  
Comments