Manson Marilyn - Coma White Chords & Tabs

 

Coma White Chords & Tabs

Manson Marilyn Chords & Tabs

Version: 4 Type: Tab 1 rating
1 star 2 stars 3 stars 4 stars 5 stars
comments

Coma White Tab

   
"Coma White"
Marilyn Manson
Mechanical Animals

Tuning-D,G,D,F,A,d -- Tune down a full step and tune D/3rd string up to an E

h-hammer
p-pulloff
b-bend
r-release
/-slide up
\-slide down
~-light vibrato
v-heavy vibrato
^-whammy bar
x-muted strings
()-harmonics

riff 1.1
d-----------------------------------------|
A-----0-----0-----0-----0---1---1---------|
F---2-----2-----2-----2-------------------|
D-------0-----0-----0-----0---0-----------|
G-----------------------------------------|
D-----------------------------------------|

riff 1.2
d-----------------------------------------|
A---/3---3---3---3---1---1---0---0--------|
F-----------------------------------------|
D------0---0---0---0---0---0---0---0------|
G-----------------------------------------|
D-----------------------------------------|

riff 2
d-------------------------------------------------------------------------------
A-----0-----0-----0-----0---1---1-----0-----0-----0-----0---1---1-----0-----0---
F---2-----2-----2-----2-------------2-----2-----2-----2-------------2-----2-----
D-------0-----0-----0-----0---0---0-----0-----0-----0-----0---0---0-----0-----0-
G---0-------------------------------3-------------------------------------------
D-------------------------------------------------------------------3-----------

d-----------------------------------------------------------|
A----0-----0---1---1--/3---3---3---3---1---1---0---0--------|
F--2-----2--------------------------------------------------|
D------0-----0---0---0---0---0---0---0---0---0---0---0------|
G-----------------------------------------------------------|
D----------------------1------------------------------------|

riff 3A
d-------------------------------------------------------------------------------
A-------------------------------------------------------------------------------
F-------------------------------------------------------------------------------
D-------------------------------------------------------------------------------
G---7--7--7--7--7--7--7--7-10-10-10-10-10-10-10-10--5--5--5--5--5--5--5--5--5\3-
D---5--5--5--5--5--5--5--5--8--8--8--8--8--8--8--8--3--3--3--3--3--3--3--3--3\1-
[ Tab from: http://www.guitartabs.cc/tabs/m/manson_marilyn/coma_white_tab_ver_4.html ]
d---------------------------|
A---------------------------|
F---------------------------|
D---------------------------|
G--3--3--3--3--3--3--3------|
D--1--1--1--1--1--1--1------|

fill A
d---------0--------0--------------0--------0--------------0--------0------------
A------------3-----------------------3-----------------------3------------------
F-------------------------------------------------------------------------------
D-------------------------------------------------------------------------------
G---0--0--0--0--0--0--0--0--3--3--3--3--3--3--3--3------------------------------
D---------------------------------------------------3--3--3--3--3--3--3--3--3p1-

d-----0--------0------------|
A--------3------------------|
F---------------------------|
D---------------------------|
G---------------------------|
D--1--1--1--1--1--1--1------|

riff 4
d-------------------------------------------------------------------------------
A-------------------------------------------------------------------------------
F-------------------------------------------------------------------------------
D---0--0--0--0--0--0--x---x--x--x--0--0--0---0--0--0--0--0--0---0--0--0--0--0--0
G---7--7--7--7-10-12--6---6--6--6-10-12--7---7--7--7-12-10--3---3--3--3--3--3--3
D---5--5--5--5--8-10--4---4--4--4--8-10--5---5--5--5-10--8--1---1--1--1--1--1--1

d--------|
A--------|
F--------|
D--0-----|
G--3-----|
D--1-----|

riff 3B
d-------------------------------------------------------------------------------
A-------------------------------------------------------------------------------
F-------------------------------------------------------------------------------
D---------------------------------------------------3--3--3--3--3--3--3--3--x---
G---7--7--7--7--7--7--7--7-10-10-10-10-10-10-10-10--2--2--2--2--2--2--2--2--5\3-
D---5--5--5--5--5--5--5--5--8--8--8--8--8--8--8--8--3--3--3--3--3--3--3--3--3\1-

d---------------------------|
A---------------------------|
F---------------------------|
D---------------------------|
G--3--3--3--3--3--3--3------|
D--1--1--1--1--1--1--1------|

Song Structure
Intro
	riff 1.1 3x
	riff 1.2 1x
	riff 2
Verse 
	riff 2 4x
Chorus
	riff 3A with fill A 2x
Interlude 1
	riff 4 1x
Verse 
Chorus 2x
Interlude 2
	riff 4 3x
	fill A 1x
	riff 3B
Chorus 2x



staind_d@hotmail.com
Comments