Manson Marilyn - Coma White Chords & Tabs

 

Coma White Chords & Tabs

Manson Marilyn Chords & Tabs

Version: 3 Type: Tab 0 ratings
1 star 2 stars 3 stars 4 stars 5 stars
comments

Coma White Tab

"Coma White" by Marilyn Manson
Tabbed by: DxL - MelvinTheLlama@aol.com - AIM: dxlogan187 - MSN: dxlogan316@hotmail.com
Standard Tuning - EADGBE


-Intro/Verse-
E--------------------------------------
B-----0-----0-----0-----0-----1---1---- 
G---2-----2-----2-----2-----2----------
D-------------------------------------- 
A-------------------------------------- 
E-------------------------------------- 

These are the chords in the verse
[ Tab from: http://www.guitartabs.cc/tabs/m/manson_marilyn/coma_white_tab_ver_3.html ]
E---------------------------
B--------------------------- 
G---------------------------
D-7/---10---5/---3------------ 
A-7/---10---5/---3------------
E-5/---8----3/---1------------


E------------------------------------------------------------------ 
B------------------------------------------------------------------ 
G------------------------------------------------------------------ 
D-7-7-7-7-10-12-x-6-6-6-6-10-12-x-7-7-7-7-12-10-x-3-3-3-3-3-3-3-3-- 
A-7-7-7-7-10-12-x-6-6-6-6-10-12-x-7-7-7-7-12-10-x-3-3-3-3-3-3-3-3-- 
E-5-5-5-5-8--10-x-4-4-4-4-8--10-x-5-5-5-5-10-8--x-1-1-1-1-1-1-1-1--

Comments