Manson Marilyn - Antichrist Chords & Tabs

 

Antichrist Chords & Tabs

Manson Marilyn Chords & Tabs

Version: 1 Type: Tab 0 ratings
1 star 2 stars 3 stars 4 stars 5 stars
comments

Antichrist Tab

                    ......ANTICHRIST SUPERSTAR......


  ALBUM: antichrist superstar
TABBED BY: POGO_76


the song is made-up of all these riff's iv'e got them in order
until manson finish's singing (prick your........) then after that
it's just a mix up of these riffs


 
intro 1:
outro :
E|-------------------|
B|-------------------|
G|----4-4-----4-4----|   x4
D|----4-4-----4-4----|
A|----2-2-----2-2----|
E|-------------------|
[ Tab from: http://www.guitartabs.cc/tabs/m/manson_marilyn/antichrist_tab.html ]
intro 2:               1-2-3      4th  time
 |-------------------|--------|--------------|
 |-------------------|--------|--------------|
 |----4-4---7---4----|--------|---10--9--7---|     x2
 |----4-4---7---4----|--------|---10--9--7---|
 |----2-2---5---2----|---0----|----8--7--5---|
 |-------------------|--------|--------------|

verse:
 |-------------------|
 |-------------------|
 |----4-4---7---4----|      x16
 |----4-4---7---4----|
 |----2-2---5---2----|
 |-------------------|


verse 2:
 |---------------------------|
 |---------------------------|
 |---5-4-3----4-4---7---4----|          x4
 |---5-4-3----4-4---7---4----|
 |---7-6-5----2-2---5---2----|
 |---------------------------|


bridge:          

 |-------------------------------|
 |-------------------------------|
 |----4-4---7---4-----10-9-7-----|    x4
 |----4-4---7---4-----10-9-7-----|
 |----2-2---5---2------8-7-5-----|
 |-------------------------------|


                  






Comments