Manowar - Thor Chords & Tabs

 

Thor Chords & Tabs

Manowar Chords & Tabs

Version: 2 Type: Tab 0 ratings
1 star 2 stars 3 stars 4 stars 5 stars
comments

Thor Tab

Manowar - Thor
Standard Tuning
Tabbed by - I munch glass


e----||----------------|------------------------|---------------|
B----||*---------------|------------------------|---------------|
G----||--9------9------|-9------9---11--12------|-9------9------|
D----||--9------9------|-9------9---11--12------|-9------9------|
A----||*-7------7------|-7------7---9---10------|-7------7------|
E-0-0||-----0-0----0-0-|----0-0-------------0-0-|----0-0----0-0-|

e------------------------|-------|----------|-------|-----------||
B------------------------|-------|----------|-------|----------*||
G-9------9---11--12------|-5-----|-(5)------|--7----|-(7)-------||
D-9------9---11--12------|-5-----|-(5)------|--7----|-(7)-------||
A-7------7---9---10--0-0-|-3-----|-(3)--3-3-|--5----|-(5)------*||
E----0-0-----------------|-------|----------|-------|------0-0--||

e|----------------|------------------------||----------------|
B|*---------------|-----------------------*||----------------|
G|--9------9------|-9------9---11--12------||-9--7--5--7--4--|
D|--9------9------|-9------9---11--12------||-9--7--5--7--4--|
A|*-7------7------|-7------7---9---10-----*||-7--5--3--5--2--|
E|-----0-0----0-0-|----0-0------------0-0--||----------------|


e-----------------|-7--------|
B-----------------|-7--------|
G-5--7--5--4--7---|-7--------|
D-5--7--5--4--7---|----------|
A-3--5--3--2--5---|----------|
E-----------------|----------|

||-------------------------|-----------|
||*------------------------|-----------|
||--9----------------------|-(9)--9--7-|
||--9----------------------|-(9)--9--7-|
||*-7----------------------|-(7)--7--5-|
||-------------------------|-----------|


e------------------------|-------------------------||
B------------------------|------------------------*||   6X
G-5----------------------|-7-----------------------||
D-5----------------------|-7-----------------------||
A-3--3--3--3--3--3--3--3-|-5--5--5--5--5--5--5--5-*||
E------------------------|-------------------------||

Rh.Fig.2
||--------------------7-----5---------|--------------------|-5------------|||
||*---5----0--5-7-8--------------8--7-|---3----2--3--5--7--|-----8----7--*|||
||------------------------------------|--------------------|--------------|||
||------------------------------------|--------------------|--------------|||
||*-----------------------------------|--------------------|-------------*|||
||------------------------------------|--------------------|--------------|||


Rh.Fig.3

e---------------------|------------------------|
D---------------------|------------------------|
G-5-------------------|-7----------------------|
D-5-------------------|-7----------------------|
A-3--3--3--3--3--3--3-|-5--5--5--5--5--5--5--5-|
E---------------------|------------------------|


e|------------------------|------------------------|---------------|----------|
B|------------------------|------------------------|---------------|----------|
G|------------------------|------------------------|---------------|-9--------|
D|-3----------------------|-5----------------------|-2--2--2--2--2-|-9--------|
A|-3----------------------|-5----------------------|-2--2--2--2--2-|-7--------|
E|-1--1--1--1--1--1--1--1-|-3--3--3--3--3--3--3--3-|-0--0--0--0--0-|-0--------|


    Rh.Fig.4 w/Solo....................................9x.

e||--------------------------|-------------------------||
B||*-------------------------|------------------------*||
G||--------------------------|-------------------------||
D||--------------------------|-------------------------||
A||*-7--7--7--7--7--7--7--7--|-3--3--3--3--5--5--5--5-*||
E||--------------------------|-------------------------||


  ....................
e|---------|---------||
B|---------|---------||
G|-5--5--5-|-7--7--7-||
D|-5--5--5-|-7--7--7-||
A|-3--3--3-|-5--5--5-||
E|---------|---------||

  Rh.Fig.1............................................................

e----------------------|------------------|-------------------------|
B----------------------|------------------|-------------------------|
G--9-------------------|--(9)--------9--7-|-5-----------------------|
D--9-------------------|--(9)--------9--7-|-5-----------------------|
A--7-------------------|--(7)--------7--5-|-3--3--3--3--3--3--3--3--|
E----------------------|------------------|-------------------------|

e---------------------------||    3X
B--------------------------*||
G--7------------------------||
D--7------------------------||
A--5--5--5--5--5--5--5--5--*||
E---------------------------||


Rh.Fig.2 (again)

||--------------------7-----5---------|--------------------|-5------------||
||----5----0--5-7-8--------------8--7-|---3----2--3--5--7--|-----8----7--*||
||------------------------------------|--------------------|--------------||
||------------------------------------|--------------------|--------------||
||------------------------------------|--------------------|-------------*||
||------------------------------------|--------------------|--------------||

|--3--------5---7---|--5----|--8-------10-12--|
|-------------------|-------|-----------------|
|-------------------|-------|-----------------|
|-------------------|-------|-----------------|
|-------------------|-------|-----------------|
|-------------------|-------|-----------------|

e-10------------|----------|---------|-----------|
B---------------|----------|---------|-----------|
G---------------|----------|---------|-9---------|
D---------------|-2--2--2--|-2-2-2-2-|-9---------|
A---------------|-2--2--2--|-2-2-2-2-|-7---------|
E---------------|-0--0--0--|-0-0-0-0-|-0-----0-0-|

[ Tab from: http://www.guitartabs.cc/tabs/m/manowar/thor_tab_ver_2.html ]
||----------------|---------------|---------------|---------------|
||*---------------|---------------|---------------|---------------|
||--9------9------|-7-7-5-5-4-----|-9------9------|-7-7-5-5-4-----|
||--9------9------|-7-7-5-5-4-----|-9------9------|-7-7-5-5-4-----|
||*-7------7------|-5-5-3-3-2-----|-7------7------|-5-5-3-3-2-0-0-|
||-----0-0----0-0-|-----------0-0-|----0-0----0-0-|---------------|


  e|--------|----------|---------|-----------||---------||
B|--------|----------|---------|----------*||-----------||
G|-5------|-(5)------|-7-------|-(7)-------||-----------||
D|-5------|-(5)------|-7-------|-(7)-------||-2---------||
A|-3------|-(3)--3-3-|-5-------|-(5)------*||-2---------||
E|--------|----------|---------|------0-0--||-0---------||

Solo Time !

|-|--3--2--3--2--3--2--3--2--3--2--3--2--3--2--3--2--3--2--3--2--3--2---|
|-|---------------------------------------------------------------------|
|-|---------------------------------------------------------------------|
|-|---------------------------------------------------------------------|
|-|---------------------------------------------------------------------|
|-|---------------------------------------------------------------------|

3--2--3--2--3--2--3--2--3--2--|--7--6--7--6--7--6--7--6--7--6--7--6-----|
------------------------------|-----------------------------------------|
------------------------------|-----------------------------------------|
------------------------------|-----------------------------------------|
------------------------------|-----------------------------------------|
------------------------------|-----------------------------------------|

7--6--7--6--7--6--7--6--7--6--7--6--7--6--7--6--7--6--7--6--|--12-11----|
------------------------------------------------------------|-----------|
------------------------------------------------------------|-----------|
------------------------------------------------------------|-----------|
------------------------------------------------------------|-----------|
------------------------------------------------------------|-----------|

12-11-12-11-12-11-12-11-12-11-12-11-12-11-12-11-12-11-12-11-12-11-12----|
------------------------------------------------------------------------|
------------------------------------------------------------------------|
------------------------------------------------------------------------|
------------------------------------------------------------------------|
------------------------------------------------------------------------|

11-12-11-12-11-12-11-|--17-16-17-16-17-16-17-16-17-16-17-16-17-16-17----|
---------------------|--------------------------------------------------|
---------------------|--------------------------------------------------|
---------------------|--------------------------------------------------|
---------------------|--------------------------------------------------|
---------------------|--------------------------------------------------|

16-17-16-17-16-17-16-17-16-17--------|--20----20----20-19-17------------|
--------------------------------18---|-----------------------20-18-17---|
-------------------------------------|----------------------------------|
-------------------------------------|----------------------------------|
-------------------------------------|----------------------------------|
-------------------------------------|----------------------------------|

------------------------------|-----------------------------------------|
------------------------------|-----------------------------------------|
19-17----16-------------------|-----------------------------------------|
------19----19-17-15----------|-----------------14----------14----------|
---------------------19-17-19-|--17-19-17-15-17----17-15-17----17-15----|
------------------------------|-----------------------------------------|

------------------------------------------------------------|-----------|
------------------------------------------------------------|-----------|
------------------------------------------------------------|-----------|
---14-------14-15-14-12-14-15-14-12-14-15-14-12-14-15-14-12-|--12-14----|
17----17-15-------------------------------------------------|-----------|
------------------------------------------------------------|-----------|

---------------10-12-10-8--10-8--7-----7--------------------------------|
------10-12-13----------------------10----10-8--6--8--6--5-----5--3-----|
10-12-------------------------------------------------------7-----------|
------------------------------------------------------------------------|
------------------------------------------------------------------------|
------------------------------------------------------------------------|

-----------------3--5--7--8--10-12-10-8--10-8--7-----7------------------|
--------3--5--6-----------------------------------10----10-8--6--8--6---|
5--4-5------------------------------------------------------------------|
------------------------------------------------------------------------|
------------------------------------------------------------------------|
------------------------------------------------------------------------|

------------------------------3--|--13-12-10----------------------------|
5-----5--3-----------3--5--6-----|-----------13-12----------------------|
---7--------5--4--5--------------|-----------------12-10-9-----9--10----|
---------------------------------|--------------------------12----------|
---------------------------------|--------------------------------------|
---------------------------------|--------------------------------------|
                                 67


---8--7--5-----------------------------------------12---|
8-----------8--------------3--3--3--3--5--5--5--5-------|
---------------5--5--5--5-------------------------------|
--------------------------------------------------------|
--------------------------------------------------------|
--------------------------------------------------------|

The solo fits in there somewhere, relatively a simple song until the solo. If you know 
song, it's mostly together just piece it in yourself. Any questions, get me at
Lucas.SH@gmail.com    or    I munch glass on AIM
Comments