Manowar - Spirit Horse Of The Cherokee Chords & Tabs

 

Spirit Horse Of The Cherokee Chords & Tabs

Manowar Chords & Tabs

Version: 2 Type: Bass Tab 0 ratings
1 star 2 stars 3 stars 4 stars 5 stars
comments

Spirit Horse Of The Cherokee Bass Tab

 ManOwaR - "Spirit Horse of the Cherokee"
 Written & Played by:
 Joey DeMaio - Top 10 Bad-A Bass Players

  Main Riff:
  We welcomed them ....
G----------------------------------------------------------------------------
D----------------------------------------------------------------------------
A---------------------------------------------you get the point--------------
E--3-0-0-0-0-0-0-0-0-3-0-0-0-0-0-0-0-0-3-0-0-0-0-0-0-0-0-3-0-0-0-0-0-0-0-0-3-
                                                                              
  Chorus:
  Great Spirit ....
G--------------------------------------------------------------------------
D--------------------------------------------------------------------------
A--------------------------------------5-5-5-5-5-5-5-5-5-------------------
E--0-0-0-0-0-0-0-0-0-3-3-3-3-3-3-3-3-3-------------------0-0-0-0-0-0-0-0-0-
  

[ Tab from: http://www.guitartabs.cc/tabs/m/manowar/spirit_horse_of_the_cherokee_btab_ver_2.html ]
G------------------------------------------------------
D------------------------------------------------------
A-----------------------2-3-0-2----------------2-3-0-2-
E--0-0-0-0-0-0-0-0-0-0-----------0-0-0-0-0-0-0---------

  Play Main ...

  Play Chorus ...   

  Solo to Honor the Great Warriors:
 (Luv ya Joey, But most of these are Lakota-(Sioux) not Cherokee)
  Red Cloud, Black Hawk .....
G-------------------------------------------------------
D-------------------------------------------------------
A------------0--------2-----------0-----7-7-5-2--0--2-5-
E--0-------0------------0-------0-----------------------

  War Drums ....


 There has been ....
G--------------------------------------------------
D--------------------------------------------------
A--------------------5-5-5-------------------5-5-5-
E--0-0-2-3-3-3-5-5-5-------0-0-2-3-3-3-5-5-5-------
                       
 Play Chorus X3 ...

 Outro:
G----------------------------------------
D----------------------------------------
A--7-7-5-7---2-2-0-2---7-7-5-7---2-2-0-2-
E----------------------------------------

Originally Tab'd by -Nyte-
Email NyteThorn@aol.com w/ questions comments
Comments