Manowar - Kill With Power Chords & Tabs

 

Kill With Power Chords & Tabs

Manowar Chords & Tabs

Version: 1 Type: Bass Tab 0 ratings
1 star 2 stars 3 stars 4 stars 5 stars
comments

Kill With Power Bass Tab

   
-== Kill With Power ==-
      (Manowar)

tabbed by: Alexandre (nightraider_br@hotmail.com)
correction by: Alexandre (nightraider_br@hotmail.com)

Any comments, suggestion, modifications or new tabs,
send to nightraider_br@hotmail.com

Thanks and...
Enjoy!



Tune - E A D G

Intro & Final

G |-----------|
D |-----------|
A |-/7-/7-/19-|
E |-----------|

Verses & Solo

G |----------------------------------------|
D |----------------------------------------|
A |-7-7-7-7-7-7-7-7\0-7-7-7-10---3-3-3-2-7-|
E |----------------------------------------|

G |----------------------------------------|
D |----------------------------------------|
A |-7-7-7-7-7-7-7-7---7-7-7-10---3-3-3-2-7-|
E |----------------------------------------|
[ Tab from: http://www.guitartabs.cc/tabs/m/manowar/kill_with_power_btab.html ]
G |--------------------------------------------|
D |--------------------------------------------|
A |-7-7-7-7-7-7-7-7---7-7-7-10---3-3-3-2-0-0-0-|
E |--------------------------------------------|

G |----------------------------------------------|
D |----------------------------------------------|
A |-2-3-3-3-5-7-7-7-10-3-3-3-2-0-0-0-2-3-3-3-5-7-|
E |----------------------------------------------|

Chorus

G |------------------------|
D |------------------------|
A |-7-7-7-10-------3-3-3-2-|
E |------------------------|


On the verses and solo, you have to play very fast the first
notes (7th fret, A string). Blow up your bass to play it right!
At the solo's final, play 8 times some notes at the 7th fret
of the A string, two at a time.

How to play:

Intro  x1
Verses x2
Chorus x2
Solo  x2
Chorus x2
Verses x1
Chorus x2
Final  x1

Comments