Manowar - Hand Of Doom Chords & Tabs

 

Hand Of Doom Chords & Tabs

Manowar Chords & Tabs

Version: 1 Type: Bass Tab 0 ratings
1 star 2 stars 3 stars 4 stars 5 stars
comments

Hand Of Doom Bass Tab

Intro

|-------------------------------------------------------------------|
|-------------------------------------------------------------------|
|-5-5-5-5-5-5-5-5-5-5-5-5-5-5-5-5-5-5-5-5-5-5-5-5-5-5-5-5-5-5-5-5-5-|
|-------------------------------------------------------------------|


|-3--5--7-------3--5--7--9------3--5--9--7------3--5--7-------------|
|-3--5--7-------3--5--7--9------3--5--9--7------3--5--7-------------|
|-1--3--5-------1--3--5--7------1--3--7--5------1--3--5-------------|
|-------------------------------------------------------------------|
 
     Bridge

|--------------7--------7-7--------------|(this one play twice)
|--------------7--------7-7--------------|
|--5-5-5-5-5-5---5-5-5-5----3-3-3-3-3-3--|triplets here
|----------------------------------------|


       Main riff

Hands of doom are reaching out to crush all infidels who stray
|-------------------------------------------------------------------|
|-------------------------------------------------------------------|
|-5-5-5-5-5-5-5-5-5-5-5-5-5-5-5-5-5-5-5-5-5-5-5-5-5-5-5-5-5-5-5-5-5-|
|-------------------------------------------------------------------|



 Time to know the pain but no time to run within
|-------------------------------------------------------------------|
|-------------------------------------------------------------------|
|-5-5-5-5-1-1-1-1-1-1-1-1-1-1-1-1-1-1-1-1-1-5-5-5-5-5-5-5-5-5-5-5-5-|
|-------------------------------------------------------------------|


 All these hands you see before you will end the light of day
|-------------------------------------------------------------------|
|-------------------------------------------------------------------|
|-5-5-5-5-5-5-5-5-5-5-5-5-5-5-5-5-5-5-5-5-5-5-5-5-5-5-5-5-5-5-5-5-5-|
|-------------------------------------------------------------------|

 
 Your ashes will be casted to the wind
|-------------------------------------------------------------------|
|-------------------------------------------------------------------|
|-5-5-5-1-1-1-1-1-1-1-1-1-1-1-1-1-5-5-5-5-5-5-5-5-5-5-5-5-5-5-5-5-5-|
|-------------------------------------------------------------------|
     Play the for the equivalent lyrics likewise


  Verse

 Tonight we strike there is thunder in the sky
|--3----------5---------------7----------------|
|--3----------5---------------7----------------|
|--1----------3---------------5----------------|
|----------------------------------------------|


[ Tab from: http://www.guitartabs.cc/tabs/m/manowar/hand_of_doom_btab.html ]
 Together we'll fight some of us will die
|--3-------------5-----7---------------9-------|
|--3-------------5-----7---------------9-------|
|--1-------------3-----5---------------7-------|
|----------------------------------------------|



 We'll always remember that we made a stand
|-------3-------5----------9----------7---------|
|-------3-------5----------9----------7---------|
|-------1-------3----------7----------5---------|
|-----------------------------------------------|



 And many will die by my hand!
|-----3---------5---------7--------------------|
|-----3---------5---------7--------------------|
|-----1---------3---------5--------------------|
|----------------------------------------------|
     Play brigde riff next


|--7------5------3-----------------------------|
|--7------5------3-----------------------------|
|--5------3------1-----------------------------|
|----------------------------------------------|

      solo background (play as a whole all 2 times)
|----------------------------------------------|
|----------------------------------------------|
|--5-5-5-5-5-5-5-5-5-5-5-5-5-5-5-5-5-5-5-5-5-5-|
|----------------------------------------------|


|----------------------------------------------|
|----------------------------------------------|
|-1-1-1-1-1-1-1-1-1-1-1-1-1-1-1-1-1-1-1-1-1-1-1|
|----------------------------------------------|



|----------------------------------------------|
|----------------------------------------------|
|-5-5-5-5-5-5-5-5-5-5-5-5-5-5-5-5-5-5-5-5-5-5--|
|----------------------------------------------|



|----------------------------------------------|
|----------------------------------------------|
|-1-1-1-1-1-1-1-1-1-1-1-1-1-1-1-1-1-1-1-1-1-1--|
|----------------------------------------------|

|----------------------------------------------|
|----------------------------------------------|
|----5555555555555555555555555-----------------|
|----------------------------------------------|
  
|----------------------------------------------|
|----------------------------------------------|
|----5555555555555555555555555-----------------|
|----------------------------------------------|

|----------------------------------------------|
|----------------------------------------------|
|----1111111111111111111111111-----------------|
|----------------------------------------------|

|----------------------------------------------|
|----------------------------------------------|
|----5555555555555555555555555-----------------|
|----------------------------------------------|

|---------------------7-------------------------|
|---------------------7-------------------------|
|--5-5-5-5-5-5-5--3-3-5-5-5-5-5-5-5-5-----------|play triplets
|-----------------------------------------------|
Comments