Manowar - Hail And Kill Chords & Tabs

 

Hail And Kill Chords & Tabs

Manowar Chords & Tabs

Version: 1 Type: Tab 1 rating
1 star 2 stars 3 stars 4 stars 5 stars
comments

Hail And Kill Tab

   
Artist: Manowar
Title: Hail And Kill
Album: Kings Of Metal
Written by: Joey De Maio, Rocss the Boss
Tabbed by: Schadi (schadhauserflo@aol.com)

Tuning: normal (E A D G H E)
I'm not sure about "INTRO (part one)", but the rest sounds great!!!!

INTRO (part one)
guitar 1
E--------------------------------------------------------------------------
H---7-5-7-3-7-5-7---7-5-7-3-7-5-3------------------------------------------
G--------------------------------------------------------------------------
D--------------------------------------------------------------------------
A--------------------------------------------------------------------------
E--------------------------------------------------------------------------

guitar 2
E--------------------------------------------------------------------------
H--------------------------------------------------------------------------
G---9-----9-----5----5-5----5-----9-----9----------------------------------
D---9-----9-----5----5-5----5-----9-----9-----9--7--5----------------------
A---7-----7-----3----3-3----3-----7-----7-----7--5--3----------------------
E---0-----0-----------------------0-----0----------------------------------


INTRO (part two)

I will just write the chords, because I'm too lazy to tab all the different strings!!!
[ Tab from: http://www.guitartabs.cc/tabs/m/manowar/hail_and_kill_tab.html ]
Em     D     G F# Em D C
"Brothers ..."


VERSE
    Em    G    D      Em    D     G   F#  Em D  C
E--------------------------------------------------------------------------
H--------------------------------------------------------------------------
G---9-----12---7------9-----7-----12--11--9--7--5--------------------------
D---9-----12---7------9-----7-----12--11--9--7--5--------------------------
A---7-----10---5------7-----5-----10--9---7--5--3--------------------------
E--------------------------------------------------------------------------

Play the second part of the Verse again.



CHORUS
E--------|-----------------------------------------------------------------
H--------|-----------------------------------------------------------------
G--------|--9-11-9---7-9-7---5-7-5---9----9-11-9---7-9-7---5-7-5---9-------
D--5-7-9-|--9-11-9---7-9-7---5-7-5---9----9-11-9---7-9-7---5-7-5---9-------
A--3-5-7-|--7-9--7---5-7-5---3-5-3---7----7-9--7---5-7-5---3-5-3---7-------
E--------|-----------------------------------------------------------------


Well, that's it.
Pretty easy, isn't it?
For the solo: just jam around!!!!

Corrections? Please mail me!!!


KEEP YOUR HEADS BANGING - UNITED WE STAND!!!!!
Comments