Manowar - Brothers Of Metal Chords & Tabs

 

Brothers Of Metal Chords & Tabs

Manowar Chords & Tabs

Version: 1 Type: Tab 0 ratings
1 star 2 stars 3 stars 4 stars 5 stars
comments

Brothers Of Metal Tab

   
Manowar
Brothers of Metal pt.1
Louder than Hell
Tabbed by Kevin Cruz

I'm not actually sure about this tab
i did it drop-D

Tune all strings down one-whole step: D A F G C D

D:--5--|-----------------------------------------------------------------|
A:--6--|-----------------------------------------------------------------|
F:--7--|-----------------------------------------------------------------|
G:--7--|-----------------------------------------------------------------|
C:--5--|-----------------------------------------------------------------|
D:--5--|-3-3-3-3-3-3-3-3-3-3-3-3-3-3-3-3-3-3-3-3-0-0-0-0-0-0-0-0-0-0-0-0-|
[ Tab from: http://www.guitartabs.cc/tabs/m/manowar/brothers_of_metal_tab.html ]
D:-----------------------------------------------------------------|--------|
A:-----------------------------------------------------------------|--------|
F:-----------------------------------------------------------------|-8--888-|
G:-----------------------------------------------------------------|-8--888-|
C:-------------------------4-4-4-4-4-4-4-4-4-4-6-6-6-6-6-6-6-6-6-6-|-6--666-|
D:-6-6-6-6-6-6-6-6-6-6-6-6-----------------------------------------|--------|

D:---------------------------------------------------|
A:---------------------------------------------------|
F:---------------------------------------------------|
G:---------------------------------------------------|
C:---------------------------------------------------|
D:-3-3-3-3-0-0-0-0-0-0-0-0-0-0-0-6-6-6-6-6-6-6-6-6-6-|

D:-------------------------------------------------|
A:-------------------------------------------------|
F:-------------------------------------------------|
G:-------------------------------------------------|
C:-4-4-4-4-4-4-4-4-4-4-6-6-6-6-6-6-6-6-6-6-6-6-6-6-|
D:-------------------------------------------------|

tHIS HOW MUCH I FIGURED OUT.
Comments