Manowar - Brothers Of Metal Chords & Tabs

 

Brothers Of Metal Chords & Tabs

Manowar Chords & Tabs

Version: 1 Type: Bass Tab 0 ratings
1 star 2 stars 3 stars 4 stars 5 stars
comments

Brothers Of Metal Bass Tab

Standard Tuning

 Intro & Verse: (Twice for Intro & Twice for Verse)
G--------------------------------------------------------------------|
D-----------------------------------5-5-5-5-5-5-5-5-7-7-7-7-9-9-9-9--| x2
A-7-7-7-7-7-7-7-7-7-3-3-3-3-3-3-3-3----------------------------------|
E--------------------------------------------------------------------|

 Bridge:
G------------------------------------------------|
D------------------------------------------------| x2
A--3-3-3-3-3-3-5-5-5-5-5-5-7-7-7-7-7-7-7-9-10-9--|
E------------------------------------------------|


G------------------------------------------------|
D------------------------------------------------|
A--5-5-5-5-5-5--4-4-4-4-4-4--2-2-2-2-2-2---------|
E------------------------------------------------|
[ Tab from: http://www.guitartabs.cc/tabs/m/manowar/brothers_of_metal_btab.html ]
 Chorus:
G------------------------------------------------|
D------------------------------------------------|
A--7-7-7-7-7-7-7-7-7--3-3-3-3-3-3-5-5-5-5-5-5-5--|
E------------------------------------------------|

 During Solo:
G------------------------------------------------|
D--------5------------7--------------------9-7-9-| x2
A--3-3-3---3-3--5-5-5---5-5--7-7-7-7-7-7-7-------|
E------------------------------------------------|


G------------------------------------------------|
D--------5------------7--------------------------|
A--3-3-3---3-3--5-5-5---5-5--7-7-7-7-7-7-7-7-7-7-|
E------------------------------------------------|


G------------------------------------------------|
D------------------------------------------------|
A--5-5-5-5-5-5--9-9-9-9-9-9--2-2-2-2-2-2-2-2-2-2-|
E------------------------------------------------|

Playing Order:

Intro
Verse
Bridge
Chorus
Verse
Bridge
Chorus
Solo
Verse
Chorus (fade out)
Comments