Mano Negra - Love And Hate Chords & Tabs

 

Love And Hate Chords & Tabs

Mano Negra Chords & Tabs

Version: 1 Type: Bass Tab 0 ratings
1 star 2 stars 3 stars 4 stars 5 stars
comments

Love And Hate Bass Tab

Mano negra:
  -love and hate-
---------------------
Part 1:
[ Tab from: http://www.guitartabs.cc/tabs/m/mano_negra/love_and_hate_btab.html ]
G|---------5-5-5-5-----------------|
D|---------------------------------|
A|-3-3-3-3-----------------5-5-5-5-|
E|-----------------3-3-3-3---------|

Part 2:

G|---------------------------------|
D|---------------------------------|
E|-6-6-6-6---------3-3-3-3---------|
A|---------6-6-6-6---------3-3-3-3-|

problems? mail me Bertdedecker1@hotmail.com 
 X
Comments