Manntis - Shades Of Hatred Chords & Tabs

 

Shades Of Hatred Chords & Tabs

Manntis Chords & Tabs

Version: 1 Type: Bass Tab

Shades Of Hatred Bass Tab

Manntis - Shades of Hatred

tuning (low to high) - D A D G

Riff 1 x2
|---------------------------------------------------------------------------|
|----------------------------------------------8^---------------------------|
|--------------------8p7h8--------------------------------------------8p7h8-|
|-XX-6-0-7-0-7-0-8-0--------XX-6-0-7-0-7-0-8-0-----XX-6-0-7-0-7-0-8-0-------|

|---------------------------------|
|---------------------------------|
|-7-7-7-7-7-7-7-7-6-6-6-6-8-8-8-8-|
|---------------------------------|

Riff 2 x4
|-------------------------------------------|
|-------------------------------------------|
|-3-3--2-3-3--7-7-7-7--------------5-5-5-5--|
|----------------------3-3--2-3-3-----------|
[ Tab from: http://www.guitartabs.cc/tabs/m/manntis/shades_of_hatred_btab.html ]
Riff 3 x2
|--------------------------------|
|--------------------------------|
|--------------------------------|
|-0-0----0-0--0-0--0-0----0-0----|

Riff 4 x1
|---------------------------------------------------------|
|-------------------------------------------------6-8-5-6-|
|----5h6p5-----5h6p5-----5----5h6p5-----5h6p5-8p7---------|
|-00--------00--------00---00--------00-------------------|

Fill 1 x1
|------------------------------------------|
|------------------------------------------|
|----5h6p5-----5h6p5-----5-----------------|
|-00--------00--------00---00---00---12\---|

Riff 4 x4

Riff 2 x4

Riff 4 x2

Riff 5 x1
|-----------------------------------------------------------------------------9----|
|--------------------------------------6-8-5-6-------------------------------------|
|----------------------------5h6p5-8p7--------------------------------------7------|
|-0-0----0-0--0-0--0-0----00-------------------0-0----0-0--0-0--0-0----0-0---------|