Manntis - Approach Chords & Tabs

 

Approach Chords & Tabs

Manntis Chords & Tabs

Version: 1 Type: Bass Tab

Approach Bass Tab

Manntis - Approach

tuning (low to high) - D A D G

Riff 1 x2
|-----------------------------------------------|
|-----------------------------------------------|
|-------5h6--------8h10--------10p8--------6p5--|
|-00-00------00-00-------00-00-------00-00------|

pause

Riff 1 x4

Riff 2 x1
|---------------------------------------------------------------------------|
|-9-9-9--9--7-7-7--7--5-5-5--5--4-4-4-4-4-4---------------------------------|
|-------------------------------------------7-7-7-7-7-7-7-7-7-7-7-7-7-7-7-7-|
|---------------------------------------------------------------------------|

|-----------------------------------------------------------------|
|-----------------------------------------------------------------|
|-3-3-3-3-3-3-3-3-4-4-5-5-5-5-5-5-7-7-7-7-7-7-7-7-7-7-7-7-7-7-7-7-|
|-----------------------------------------------------------------|

|------------------------------------------------------------------------------|
|----------------------------------7-7-7--7--5-5-5--5--4-4-4-4-----------------|
|-3-3-3-3-3-3-3-3-4-4-5-5-5-5-5-5------------------------------7-7-7-7-7-7-7-7-|
|------------------------------------------------------------------------------|
[ Tab from: http://www.guitartabs.cc/tabs/m/manntis/approach_btab.html ]
|----------------------------------------------------------------------|
|----------------------------------------------------------------------|
|8-8-8-8-10-10-10-10-7-7-7-7-7-7-7-7-7-7-7-7-7-7-7-7-7-3-3-3-3-3-3-3-3-|
|----------------------------------------------------------------------|

Riff 3 x2
|---------------------------------------------------------------------12-10-999-7-|
|-7------------------7------------------7------------------7-------7--------------|
|---------------------------------------------------------------------------------|
|--0--0-0--0--0-0--0--0--0-0--0--0-0--0--0--0-0--0--0-0--0--0--0-0--0-------------|

Riff 1 x5

Riff 2 x1

Riff 3 x2

Fill 1 x1
|-12-10-999-7--15-13-121212-10--15-13-121212-10--17-15-141414-12--17-15-141414-12--|
|----------------------------------------------------------------------------------|
|----------------------------------------------------------------------------------|
|----------------------------------------------------------------------------------|

Riff 4 x4
|-------------------------|
|-------------------------|
|--------5-----------7----|
|-00-00-0-----00-00-0-----|

hold for like 5 secs 

Fill 2 x1
|----------|
|----------|
|--------5-|
|-00-00-0--|