Manilla Road - Crystal Logic Chords & Tabs

 

Crystal Logic Chords & Tabs

Manilla Road Chords & Tabs

Version: 1 Type: Tab 0 ratings
1 star 2 stars 3 stars 4 stars 5 stars
comments

Crystal Logic Tab

Manilla Road - Crystal Logic

Some parts seem to be correct, others don't
i've done my best
suggestions etc : ShadowBlade_69@yahoo.com
looking forward to meet you guys!!!
a big hail to manilla from hellas

intro
  .      .        . . . .	       fill 1
|---b--rb----------------b-rb---------|--------|
|-12-13--12~------5-5-5-5-6--5~-------|--------|
|--------------------------------7----|--------|
|-------------2------------------7----|--------|
|-------------2------------------5----|--------|
|-------------0-----------------------|-3-2-3--|

riff 1a
|-------------------------------------
|-------------------------------------
|-------------------------------------
|-------------------------------------
|--------------2----------------------
|-0--0-2-0-3-0---0--0-2-0-3-2-1-0-----

-------------------------------------|
-------------------------------------|
-------------------------------------|
-------------------------------------|
--------------2----------------------|
----0-2-0-3-0---0--0-2-0-3-2-3-0-----|

riff 1b
|-------------------------------------
|-------------------------------------
|-------------------------------------
|-------------------------------------
|--------------2----------------------
|-0--0-2-0-3-0---0--0-2-0-3-2-1-0-----
     * * * * *      * * * * * *
"For all the sorcery...

-------------------------------------|
-------------------------------------|
-------------------------------------|
-------------------------------------|
--------------2----------------------|
----0-2-0-3-0---0--0-2-0-3-2-3-0-----|
    * * * * *      * * * * * * 

riff 2
|-----------------------------------------|
|-----------------------------------------|
|-7-------------------------7-------------|
|-7-----------2-------------7-------------|
|-5-----------2-------------5-------------|
|-------3-2-3-0-------3-2-3--------3-2-3--|
"I'm not burning...

[ Tab from: http://www.guitartabs.cc/tabs/m/manilla_road/crystal_logic_tab.html ]
riff 3 
|-----------------------------------------|
|-----------------------------------------|
|-7-------------------------7-------------|
|-7-----------2-------------7------7------|
|-5-----------2-------------5------7------|
|-------3-2-3-0-------3-2-3--------5------|


riff 4
|------------------------------------------------------------|
|------------------------------------------------------------|
|-4---4-4---4-4---4-4----------5---5-5---5-5---5-5-----------|
|-4---4-4---4-4---4-4----------5---5-5---5-5---5-5-----------|
|-2---2-2---2-2---2-2----------3---3-3---3-3---3-3-----------|
|----------------------5-4-2-0---------------------5-4-2-0---|
                       * * * *                     * * * *
"We live in confusion...

riff 5
|------------------------------------------------------------------------|
|------------------------------------------------------------------------|
|-4---4-4---4-4---4-4-------------------------5---5-5---5-5---5----------|
|-4---4-4---4-4---4-4-------------------------5---5-5---5-5---5----------|
|-2---2-2---2-2---2-2----------2-3-2----------3---3-3---3-3---3----------|
|----------------------0-2-4-5-------5-4-2-0--------------------5-4-2-0--|
		       * * * * * * * * * * *                    * * * *


riff 6 
|-----------------------|
|-----------------------|
|-----------------------|
|-7-----4--5----2--4----|
|-7-----4--5----2--4----|
|-5-----2--3----0--2----|


solo 1 
|--------------------------------------------------------
|--------------------------------------------------------
|--------------------------------------------------------
|--------------------------------------------------------
|--2--2-4-5----------------------------------------------
|-----------2--2-3-5-3--3-5-3-2-3-2-0-2-3----------------

--------------------------------------------------------|
--------------------------------------------------------|
--------------------------------------------------------|
---------0-5-4-0-4--4-540-0-0.......--------------------|
--2--2-4------------------------------------------------|
--------------------------------------------------------|
could't transcibe further, sorry
Comments