Manic Street Preachers - You Stole The Sun From My Heart Chords & Tabs

 

You Stole The Sun From My Heart Chords & Tabs

Manic Street Preachers Chords & Tabs

Version: 1 Type: Tab 0 ratings
1 star 2 stars 3 stars 4 stars 5 stars
comments

You Stole The Sun From My Heart Tab

   
От: for www.ultimate-guitar.com 
Кому: 
Тема: New Tabs
Дата: 9 июня 2000 г. 17:03

ManicStreetPreachers,YouStoletheSunFromMyHeart.
 Tabbed by Scarecrow,Brainwashfamily@hotmail.com.
  

intro: (second half of intro is also played allthe way through the verse)

1)
e----0---0--|-------------|-----0----0--|--------
B-----------|-----4---4---|-------------|---4-454-2-0 
G--1---1---1|---2---2---2-|---1---1----1|--2------
D-----------|-------------|-------------|--------
A-----------|-0-----------|-------------|0-------
E-0---------|-------------|-0-----------|---------

2)
e-----0--0--|----------|----0---0-|------------
B-----------|----4---4-|----------|----4--4----
G---1--1--1-|---2--2--2|---1--1--1|---2--2--2--
D-----------|----------|----------|------------
A-----------|-0--------|----------|-0-----------
E-0---------|----------|-0--------|-------------


verse1:
Drinking- water to stay thin
Or is it to purify, i love you all the same
But there's no-no real truce with my fury,
You don't have to believe me, I love you all the same
[ Tab from: http://www.guitartabs.cc/tabs/m/manic_street_preachers/you_stole_the_sun_from_my_heart_tab.html ]
verse2:
You have-broken through my armour, and i don't have an answer i, I love you all the same
I paint-the things i wanna see, but it don't come easy, I love you all the same

verse3: 
thinki'm-lost among the undergrowth
so much so i woke up i
i love you all the same


verse4:
I have-I've got to stop smiling, it gives the wrong impression, i love you all the same... 
     Ritenuto                   E
chorus:But you stole the sun from my heart
        B                             E
       You stole the sun from my heart,
             Cism                 Gism  A
       Ooooh you stole the sun from my heart
              B                          E
       You stole the sun from, You stole the sun from
        Cism         Gism       Bm            Fism
       Aaaaaah...
       F-slide to-E

chords:           Playing order:intro
B:      224442                  verse1 
E:      022100                  chorus
Cism:   446654                  verse2 
Gism:   466444                  chorus 
A:      577655                  verse3
Bm:     224432                  chorus        
Fism:   244222                  verse4
F:      133211    

This is one of the 'newer' Manics' songs. To my regret i'm not (yet) good enough to tab their old work :o( But when i get to it, you'll be the first to know!!!     
 
:: Ultimate Guitar Archive :: 
http://www.ultimate-guitar.com 

Comments