Manic Street Preachers - You Love Us Chords & Tabs

 

You Love Us Chords & Tabs

Manic Street Preachers Chords & Tabs

Version: 2 Type: Tab

You Love Us Tab

-----------------------------------------------------------------------
You love us - Manic Street Preachers
-----------------------------------------------------------------------
Tabbed by:doodoo62
Email:doodoo62@hotmail.co.uk

Tuning:standard
There is another tab on this website but i dont think the intro solo was quite rite so 
my version.

e|-------------|---------------------------------3-----------3---3-----|
B|-------------|-----------------------------------1---------3---3-3---|
G|-------------|--7b-7b-5b--2brb2-2-0-2-2h3p2-0------0-3-3-5b--5b--5b--|
D|-5-5-5-5-5-5-|--------------------------------3----------------------|
A|-5-5-5-5-5-5-|x4-----------------------------------------------------|
E|-0-3-3-3-3-3-|-------------------------------------------------------|

2nd time
[ Tab from: http://www.guitartabs.cc/tabs/m/manic_street_preachers/you_love_us_tab_ver_2.html ]
e|------------------------------5h6p5-3-1-0--------------------------|
B|------------------------------------------3---3b-------------------|
G|-7b-7b-5b-2brb2-2-0-2-2h3p2-0---------------3----------------------|
D|-------------------------------------------------------------------|
A|-------------------------------------------------------------------|
E|-------------------------------------------------------------------|

Ive also done the outro solo

IM not sure how many 10 8s there are
e|------------------------------|----------------------------------------|
B|-------8-----8----8-----8-8---|------------------5--5--3---------------|
G|-o--10b---10b---10b--10b----o-|------------------7b-7b-5b--14brb-12-14-|
D|-o--------------------------o-|-------0-3b5rb3-0-----------------------|
A|------------------------------|---1-3----------------------------------|
E|------------------------------|-3--------------------------------------|

e|--------------------------------------------------------|
B|-------12h13p12-----------------------------------------|
G|-14brb----------14-12-10-12-10b12~----------------------|
D|--------------------------------------------------------|
A|--------------------------------------------------------|
E|--------------------------------------------------------|

Something like that.Well hapy playin.