Manic Street Preachers - Symphony Of Tourette Chords & Tabs

 

Symphony Of Tourette Chords & Tabs

Manic Street Preachers Chords & Tabs

Version: 1 Type: Tab 0 ratings
1 star 2 stars 3 stars 4 stars 5 stars
comments

Symphony Of Tourette Tab

   
Manic Street Preachers - Symphony Of Tourette
[ Tab from: http://www.guitartabs.cc/tabs/m/manic_street_preachers/symphony_of_tourette_tab.html ]
Main Riff:
The main riff is split into 2 parts:
Part A               Part B
e-------------------|-----------------------|
B-------------------|-----------------------|
G-------------------|-----------------------|
D-------------------|-9--8--7--5------------|
A-5-7-7-7-7---10-7--|-9--8--7--5------------|
E-0-0-0-0-0----0-0--|-7--6--5--3--2-(3)-2-0-|
   h                               B        
Intro - Part A x3 Part B
         Part A x3 Part B
Verse:
Part A 
Stutter, stutter says the little boy
Part A                          Part B
I wanna blow a hole in my head
PRE-CHORUS:
A C     D               A     C  D
I swear what this world wants to hear
A       C  D               A     C   D
Trapped in what we know as truth syndrome
Riff A
Stutter, stutter
Silence no friend
e-------------------|------------------|
B-------------------|------------------|
G-------------------|------------------|
D----------4--5--7--|---------4--5--7--|
A-3--5--7-----------|-3--5--7----------|
E-------------------|------------------|
Chorus:
F#                        D            F#                         D
Children can be cruel she said    So I smashed her in the fucking head
e-------------------------------|-------------------------------------------|
B-------------------------------|-------------------------------------------|
G-7---7---7---7---7----6---4-2--|------7---7---7---7---7-----6-----14--14---|
D-------------------------------|-------------------------------------------|
A-------------------------------|-------------------------------------------|
E-------------------------------|-------------------------------------------|
  B   B   B   B   B                    B   B   B   B   B                B
F#                        D            F#          D
Sorry dear, that's the nature of tourettes    
e-------------------------------------------|
B-------------------------------------------|
G-7--7--6-----6---------7--6---4-2--4-6-9-6-|
D-------------------------------------------|
A-------------------------------------------|
E-----------------------------------------|
  B                                   
VERSE
PRE-CHORUS
CHORUS
SOLO:
The solo contains two guitar parts, but can be played by one guitar.
GUITAR 1
e--------------------------------------|
B-----------------------------------3--|
G-----------------------------------3--|   x4
D------2--------3------------0------3--|
A-----------------------------------1--|
E-2-2-----2--2-----2---0--0-----0------|
GUITAR 2 - comes in after this and plays the solo:
e----------------------------------------------------------------|
B--17--17--17--17--15-15-------------------------14-(16)---------|
G-------------------------18-----------------------------14-(16)-|
D----------------------------17--16-16-14-16-14------------------|
A----------------------------------------------------------------|
E----------------------------------------------------------------|
    B       B                                     B       B
                          
e-----------------------------------10-9-7--------------------------|
B---7---7---7---7---7-----------------------------------------------|
G-9---9---9---9---9---------------9---------------------------------|
D----------------------7--5------------------------12-11--------12--|
A---------------------------5----------------7/10---------7/10------|
E-------------------------------------------------------------------|
  B   B   B   B   B               B           s            s     B
While Guitar 1 plays this underneath it:
e------------------------|
B------------------------|
G------------------------|   
D-----4-3-2--------------|
A-----------------5-4----|
E-3/5--------0-3------5--|
VERSE
 
PRE-CHORUS:
    A C     D                A  C    D
But I can't even be bothered to hang on
A    C    D                    A C  D
When your this numb news don't register
A  C  D    A  C  D   A  C  D   A  C  D
I         just       o         pened  my
E      C C/B/A x3
Eyes
e--------------------------------------------------|
B--------------------------------------------------|
G--------------------------------------------------|   
D-------------5---------------7---------------9----|
A-5-7-7-7-7-----7--5-7-7-7-7----7--5-7-7-7-7----7--|
E-0-0-0-0-0--------0-0-0-0-0-------0-0-0-0-0-------|
   h                h               h
e-------------------------------|
B-------------------------------|
G-------------------------------|   
D-------------------------------|
A-----0-3------0-3------0-3-----|
E-1-3------1-3------1-3------1--|
Comments