Manic Street Preachers - Stay Beautiful Chords & Tabs

 

Stay Beautiful Chords & Tabs

Manic Street Preachers Chords & Tabs

Version: 1 Type: Tab 0 ratings
1 star 2 stars 3 stars 4 stars 5 stars
comments

Stay Beautiful Tab

   
tuning low to high - e,a,d,g,b,e


|-----------------------|
|-----------------------|
|-7-7-------------------|
|-7-7-x-5/7\5-5--5-5--5-| x4
|-5-5-x-5/7\5-5--5-5--5-|
|-----x-3/5\3-3--3-3--3-|

|-------------------------------------------------|
|-------------------------------------------------|
|-7-7-7-7-7-7-7-7-7-7-7-7-7-7-7-7-7-7-7-7-7-7-7-7-|
|-7-7-7-7-7-7-7-7-7-7-7-7-7-7-7-7-7-7-7-7-7-7-7-7-|
|-5-5-5-5-5-5-5-5-5-5-5-5-5-5-5-5-5-5-5-5-5-5-5-5-|
|-------------------------------------------------|
|
|
|-------------------------------------------------|
|---2-3-------8---8---2-3-----------2-3-------8---|
|---2-2-------7---7---2-2-----------2-3-------7---|
|-------------------------------------------------|
|-------------------------------------------------|
|-------------------------------------------------|

|-------------------------------------------------|
|-------------------------------------------------|
|-7-7-7-7-7-7-7-7-7-7-7-7-7-7-7-7-7-7-7-7-7-7-7-7-|
|-7-7-7-7-7-7-7-7-7-7-7-7-7-7-7-7-7-7-7-7-7-7-7-7-|
|-5-5-5-5-5-5-5-5-5-5-5-5-5-5-5-5-5-5-5-5-5-5-5-5-|
|-------------------------------------------------|
|
|
|-------------------------------------------------|
|-8---2-3-----------2-3-------8---8---2-3---------|
|-7---2-2-----------2-2-------7---7---2-2---------|
|-------------------------------------------------|
|-------------------------------------------------|
|-------------------------------------------------|

|---------------------------------|
|-2---------------2---------------|
|-2---------------2---------------|
|-2---------------2---------------|
|-0---------------0---------------|
|---------------------------------|
|
|
|---------------------------------|
|-------2---------------2---------|
|-----2---------------2-----------|
|---2---------------2-------------|
|-0---------------0---------------|
|---------------------------------|

|-----------------------|
|-----------------------|
|-7-7-------------------|
|-7-7-x-5/7\5-5--5-5--5-| x2
|-5-5-x-5/7\5-5--5-5--5-|
|-----x-3/5\3-3--3-3--3-|

|-------------------------------------------------|
|-------------------------------------------------|
|-7-7-7-7-7-7-7-7-7-7-7-7-7-7-7-7-7-7-7-7-7-7-7-7-|
|-7-7-7-7-7-7-7-7-7-7-7-7-7-7-7-7-7-7-7-7-7-7-7-7-|
|-5-5-5-5-5-5-5-5-5-5-5-5-5-5-5-5-5-5-5-5-5-5-5-5-|
|-------------------------------------------------|
|
|
|-------------------------------------------------|
|---2-3-------8---8---2-3-----------2-3-------8---|
|---2-2-------7---7---2-2-----------2-3-------7---|
|-------------------------------------------------|
|-------------------------------------------------|
|-------------------------------------------------|

|-------------------------------------------------|
|-------------------------------------------------|
|-7-7-7-7-7-7-7-7-7-7-7-7-7-7-7-7-7-7-7-7-7-7-7-7-|
|-7-7-7-7-7-7-7-7-7-7-7-7-7-7-7-7-7-7-7-7-7-7-7-7-|
|-5-5-5-5-5-5-5-5-5-5-5-5-5-5-5-5-5-5-5-5-5-5-5-5-|
|-------------------------------------------------|
|
|
|-------------------------------------------------|
|-8---2-3-----------2-3-------8---8---2-3---------|
|-7---2-2-----------2-2-------7---7---2-2---------|
|-------------------------------------------------|
|-------------------------------------------------|
|-------------------------------------------------|

|-0---------------0---------------|
|-2---------------2---------------|
|-2---------------2---------------|
|-2---------------2---------------|
|-0---------------0---------------|
|---------------------------------|
|
|
|---------------------------------|
|-------2---------------2---------|
|-----2---------------2-----------|
|---2---------------2-------------|
|-0---------------0---------------|
|---------------------------------|

|-2-------2-------2-------2-------2-------2-------2-------2-------|
|---3-------3-------3-------3-------3-------3-------3-------3-----|
|-----2-------2-------2-------2-------2-------2-------2-------2---|
|-------0-------0-------0-------0-------0-------0-------0-------0-|
|-----------------------------------------------------------------|
|-----------------------------------------------------------------|

|-2-------2-------2-----------------------------------------------|
|---3-------3-------3-----12(13)----------------------------------|
|-----2-------2-------2---12(14)----2-----------------------------|
|-------0-------0-------0-----------2-------------2---------------|
|-----------------------------------0-------0-----0-------0-------|
|--------------------------------12\--3-2-3---3-2---3-2-3---3-2-0-|

|-2-----------2-----------2-------2-----------2-----------2-------|
|---3-------3---3-------3---3-------3-------3---3-------3---3-----|
|-----2---2-------2---2-------2-------2---2-------2---2-------3---|
|-------0-----------0-----------0-------0-----------0-----------0-|
|-----------------------------------------------------------------|
|-----------------------------------------------------------------|
[ Tab from: http://www.guitartabs.cc/tabs/m/manic_street_preachers/stay_beautiful_tab.html ]
|-2-----------2---------------------------------------------------|
|---3-------3---3---------12(13)----------------------------------|
|-----2---2-------2---0---12(14)----2-----------------------------|
|-------0-----------0---------------2-------------2---------------|
|-----------------------------------0-------0-----0-------0-------|
|--------------------------------12\--3-2-3---3-2---3-2-3---3-2-0-|

|-----------------------|
|-----------------------|
|-7-7-------------------|
|-7-7-x-5/7\5-5--5-5--5-| x2
|-5-5-x-5/7\5-5--5-5--5-|
|-----x-3/5\3-3--3-3--3-|

|-------------------------------------------------|
|-------------------------------------------------|
|-7-7-7-7-7-7-7-7-7-7-7-7-7-7-7-7-7-7-7-7-7-7-7-7-|
|-7-7-7-7-7-7-7-7-7-7-7-7-7-7-7-7-7-7-7-7-7-7-7-7-|
|-5-5-5-5-5-5-5-5-5-5-5-5-5-5-5-5-5-5-5-5-5-5-5-5-|
|-------------------------------------------------|
|
|
|-------------------------------------------------|
|---2-3-------8---8---2-3-----------2-3-------8---|
|---2-2-------7---7---2-2-----------2-3-------7---|
|-------------------------------------------------|
|-------------------------------------------------|
|-------------------------------------------------|

|-------------------------------------------------|
|-------------------------------------------------|
|-7-7-7-7-7-7-7-7-7-7-7-7-7-7-7-7-7-7-7-7-7-7-7-7-|
|-7-7-7-7-7-7-7-7-7-7-7-7-7-7-7-7-7-7-7-7-7-7-7-7-|
|-5-5-5-5-5-5-5-5-5-5-5-5-5-5-5-5-5-5-5-5-5-5-5-5-|
|-------------------------------------------------|
|
|
|-------------------------------------------------|
|-8---2-3-----------2-3-------8---8---2-3---------|
|-7---2-2-----------2-2-------7---7---2-2---------|
|-------------------------------------------------|
|-------------------------------------------------|
|-------------------------------------------------|

|---------------------------------|
|-2---------------2---------------|
|-2---------------2---------------|
|-2---------------2---------------|
|-0---------------0---------------|
|---------------------------------|
|
|
|---------------------------------|
|-------2---------------2---------|
|-----2---------------2-----------|
|---2---------------2-------------|
|-0---------------0---------------|
|---------------------------------|

|-----------------------|
|-----------------------|
|-7-7-------------------|
|-7-7-x-5/7\5-5--5-5--5-| x2
|-5-5-x-5/7\5-5--5-5--5-|
|-----x-3/5\3-3--3-3--3-|

|-------------------------------------------------|
|-------------------------------------------------|
|-7-7-7-7-7-7-7-7-7-7-7-7-7-7-7-7-7-7-7-7-7-7-7-7-|
|-7-7-7-7-7-7-7-7-7-7-7-7-7-7-7-7-7-7-7-7-7-7-7-7-|
|-5-5-5-5-5-5-5-5-5-5-5-5-5-5-5-5-5-5-5-5-5-5-5-5-|
|-------------------------------------------------|
|
|
|-------------------------------------------------|
|---2-3-------8---8---2-3-----------2-3-------8---|
|---2-2-------7---7---2-2-----------2-3-------7---|
|-------------------------------------------------|
|-------------------------------------------------|
|-------------------------------------------------|

|-------------------------------------------------|
|-------------------------------------------------|
|-7-7-7-7-7-7-7-7-7-7-7-7-7-7-7-7-7-7-7-7-7-7-7-7-|
|-7-7-7-7-7-7-7-7-7-7-7-7-7-7-7-7-7-7-7-7-7-7-7-7-|
|-5-5-5-5-5-5-5-5-5-5-5-5-5-5-5-5-5-5-5-5-5-5-5-5-|
|-------------------------------------------------|
|
|
|-------------------------------------------------|
|-8---2-3-----------2-3-------8---8---2-3---------|
|-7---2-2-----------2-2-------7---7---2-2---------|
|-------------------------------------------------|
|-------------------------------------------------|
|-------------------------------------------------|

|-0---------------0---------------|
|-2---------------2---------------|
|-2---------------2---------------|
|-2---------------2---------------|
|-0---------------0---------------|
|---------------------------------|
|
|
|---------------------------------|
|-------2---------------2---------|
|-----2---------------2-----------|
|---2---------------2-------------|
|-0---------------0---------------|
|---------------------------------|

|-2-------2-------2-------2-------2-------2-------2-------2-------|
|---3-------3-------3-------3-------3-------3-------3-------3-----|
|-----2-------2-------2-------2-------2-------2-------2-------2---|
|-------0-------0-------0-------0-------0-------0-------0-------0-|
|-----------------------------------------------------------------|
|-----------------------------------------------------------------|

|-2-------2-------2-----------------------------------------------|
|---3-------3-------3-----12(13)----------------------------------|
|-----2-------2-------2---12(14)----2-----------------------------|
|-------0-------0-------0-----------2-------------2---------------|
|-----------------------------------0-------0-----0-------0-------|
|--------------------------------12\--3-2-3---3-2---3-2-3---3-2-0-|

|-2-----------2-----------2-------2-----------2-----------2-------|
|---3-------3---3-------3---3-------3-------3---3-------3---3-----|
|-----2---2-------2---2-------2-------2---2-------2---2-------3---|
|-------0-----------0-----------0-------0-----------0-----------0-|
|-----------------------------------------------------------------|
|-----------------------------------------------------------------|

|-2-----------2---------------------------------------------------|
|---3-------3---3---------12(13)----------------------------------|
|-----2---2-------2---0---12(14)----2-----------------------------|
|-------0-----------0---------------2-------------2---------------|
|-----------------------------------0-------0-----0-------0-------|
|--------------------------------12\--3-2-3---3-2---3-2-3---3-2-0-|

to lazy to do solos yet but will add them soon
Comments