Manic Street Preachers - Spectators Of Suicide Chords & Tabs

 

Spectators Of Suicide Chords & Tabs

Manic Street Preachers Chords & Tabs

Version: 1 Type: Tab 0 ratings
1 star 2 stars 3 stars 4 stars 5 stars
comments

Spectators Of Suicide Tab

   
introduction- repeat 6 times on guitar one

"for the concept of this land
we're gonna walk on this nation
we're gonna walk on this racist power structure
& we're gonna say to the whole damn government
stick 'em up mother, this is a hold up
we've come for what's ours"

e|------------------------
b|------------------------
g|---9-9-9--7-7-7---------
d|7--9-9-9--7-7-7--9-9--7-
a|7--7-7-7--5-5-5--9-9--7-
e|5----------------7-7--5-
  a5 e5     d5     b5   a5
introduction- guitar two plays this riff along with guitar one 5th time round

e|----------------------------------------------------------
b|----------------------------------------------------------
g|----------------------------------------------------------
d|----------------------------------------------------------
a|-------------7-7~~7-7~~--5-5~~5-5~~--7-7-7-7--5-7-5-6~~5--
e|5-5~~~5-5~~-----------------------------------------------
 
verse a- 

Obedience to the law is free desire
Under curfew from sharp neon barbed wire

e|---------------------------------
b|---------------------------------
g|7-7-7-7-7--9-9-9--7-7-7----------
d|7-7-7-7-7----------------9-9--7--
a|5-5-5-5-5--7-7-7--5-5-5----------
e|-------------------------7-7--5--
  d5         e5     d5     b5   a5
pre chorus- 

wasting away this country, wearing like born dead

e|---------------------  --------------------
b|---------------------  --------------------
g|---------------------  --------------------
d|12-14-13-11--10-10---  --------------------
a|---------------------  12-14-13-11-10-10---
e|---------------------  --------------------
repeat twice             repeat twice

free heroin shots for those who will no longer beg

e|---------------------  --------------------
b|---------------------  --------------------
g|---------------------  --------------------
d|12-14-13-11--10-10---  --------------------
a|---------------------  12-14-13-11-10-10---
e|---------------------  --------------------
repeat twice             repeat twice
[ Tab from: http://www.guitartabs.cc/tabs/m/manic_street_preachers/spectators_of_suicide_tab.html ]
-pre chorus

e|---------------------------------------------------
b|---------------------------------------------------
g|-------8-8-8-8---------6-6-6-6---------8-8-8-------
d|6-6-6--8-8-8-8--8-8-8--6-6-6-6--6-6-6--8-8-8--8----
a|6-6-6--6-6-6-6--8-8-8--4-4-4-4--6-6-6--6-6-6--8----
e|4-4-4-----------6-6-6-----------4-4-4---------6----
  g#5    d#5      a#5    c#5      g#5    d#5    a#5
chorus-

strum chords

a5         e5 d5 a5
spectators of suicide
g#5          d#5   c#5 g#5       
exploding in society's eye
d5             c5       g5    [all palm muted}
spitting glass from our mouths
g#5        e5    d5  a5
Dying like yesterday

bridge-

e|-------------------------------------------------------
b|-------------------------------------------------------
g|-------7-7-7---------9-9-9---------11-11-11--12-12-12--
d|7-7-7--7-7-7--7-7-7--9-9-9--8-8-8--11-11-11--12-12-12--
a|7-7-7--5-5-5--7-7-7--7-7-7--8-8-8--9--9--9---10-10-10--
e|5-5-5---------5-5-5---------6-6-6----------------------
  a5     d5     a5     e5     a#5    f5        g5
repeat as many times as nessesery

verse b-

repeat verse a then repeat pre chorus

the only free choice is the refusal to pay
life reduced to suicidal comforting
cigarette death, it's suckling
choked on the same lines that we've all said

outro- 

You're gonna shoot us dead with the words we say

e|0-0-0-0--0-0--0-0-0-0--0-0--
b|2-2-2-2--2-2--2-2-2-2--2-2--
g|2-2-2-2--2-2--2-2-2-2--2-2--
d|2-2-2-2--2-2--2-2-2-2--2-2--
a|0-0-0-0--0-0--0-0-0-0--0-0--
e|0-0-0-0--0-0--0-0-0-0--0-0--
  a                 

e|0-0-0-0--0-0--0-0--0-0--
b|0-0-0-0--0-0--0-0--0-0--
g|1-1-1-1--1-1--1-1--1-1--
d|2-2-2-2--2-2--2-2--2-2--
a|2-2-2-2--2-2--2-2--2-2--
e|0-0-0-0--0-0--0-0--0-0--
 e      

repeat as many times as nessesery

jaque xxx
falling_to_pieces@hotmail.com
Comments