Manic Street Preachers - Sleepflower Chords & Tabs

 

Sleepflower Chords & Tabs

Manic Street Preachers Chords & Tabs

Version: 2 Type: Bass Tab 0 ratings
1 star 2 stars 3 stars 4 stars 5 stars
comments

Sleepflower Bass Tab

Manic Street Preachers

From the Album "Gold Against the Soul"

Track 1 - Sleepflower

Intro

G-|-----------------------------------------------------||
D-|-----------------------------------------------------||
A-|-0--0-8-7-0--3-3-0-2-3-2-0---------------------------||
E-|---------------------------3-3-3-3-3-3-3-1-1-0-1-3-3-||

Verse

G-|----------------------------------------||
D-|----------------------------------------||
A-|-0----3----0--0--0-8-7-0--3-3-0-2-3-2-0-||
E-|----------------------------------------||

Chorus

G-|--------------------------||
D-|--------------------------||
A-|------5---------3-33-2-22-||
E-|-3---------1--------------||

Bridge
			 (x2 first time)
G-|-----------------------|-----------------------||
D-|-----------------------|-----------------------||
A-|-----------------------|-3-3-3---1-1-1---------||
E-|-5-5-5---5-5-5---5-5-5-|-----------------5-5-5-||
[ Tab from: http://www.guitartabs.cc/tabs/m/manic_street_preachers/sleepflower_btab_ver_2.html ]
Solo
						   x2
G-|-------------------------------------------------|
D-|-------------------------------------------------|
A-|---------------------5-----/0--------------------|
E-|-5-----/0--3-----/0------------5-----/0--5-0-5-5-|

						
G-|------------------------------------|
D-|------------------------------------|
A-|------------------------------------|
E-|-5--5-5--5--5-5-5--3--3-3--3--3-3-3-|

				       x2
G-|-------------------------------------||
D-|-------------------------------------||
A-|-5--5-5--5--5-5-5--------------------||
E-|-------------------5--5-5--5-5-0-5-5-||
Outro
		   x2
G-|-----------------|---------------||
D-|-----------------|---------------||
A-|-----------------|---5---3-2-----||
E-|-5-5-5-5-5-5-5-5-|-3---3-----3-1-||


Structure:

First 2 bars: no bass

Intro x2
Verse x4
Chorus x4

Repeat above

Bridge x2
Intro x2
Solo x1
Chorus x4
Intro x1
Outro x1
Comments