Manic Street Preachers - Slash N Burn Chords & Tabs

 

Slash N Burn Chords & Tabs

Manic Street Preachers Chords & Tabs

Version: 3 Type: Tab 0 ratings
1 star 2 stars 3 stars 4 stars 5 stars
comments

Slash N Burn Tab

   
Song: Slash n Burn
Band: Manic Street Preachers
By: Dan

Intro:(this is sometimes varied a bit but this is basically it)

e-----------9---------------------2-----------|
b---------7-9-7-6-6-7-6-----------2-2-2-2-2-2-|
g---------6---6-6-6-6-6-------------4-3-3-4-3-|
d---4-6/8-------6-6-8-6-----------------------|
a-4---------------------6p4-------------------|
E---------------------------6p4-2-------------|

This is played the last time and is repeated later in the song

e-----------9---------------------2---------------------------|
b---------7-9-7-6-6-7-6-----------2-2-2-2-2---------7-7-6-6---|
g---------6---6-6-6-6-6-------------4-3-4-3-9-9-7-7-6-6-6-6---|
d---4-6/8-------6-6-8-6---------------------9-9-7-7-8-8-6-6---|
a-4---------------------6p4-----------------7-7-5-5-----------|
E---------------------------6p4-2-----------------------------|

Verse:
      |--------|
         p.m
e---------------------------------------|
b---------------------------------------|
g-4/6-6-6-6-6-6--6--------------------4-|  This is x2
d-4/6-6-6-6-6-6--6-- (x3) then----4-4-4-|
a-2/4-4-4-4-4-4--4----------------4-4-2-|
E---------------------------------2-2---|

Chorus:
             |---------|        |--------|
                p.m                p.m
e--------------------------------------------|
b--------------------------------------------|
g----4-4--4/6-6-6-6-6-6--6--4/6-6-6-6-6-6--6-|
d-2--4-4--4/6-6-6-6-6-6--6--4/6-6-6-6-6-6--6-|
a-2--2-2--2/4-4-4-4-4-4--4--2/4-4-4-4-4-4--4-|
E-0------------------------------------------|
[ Tab from: http://www.guitartabs.cc/tabs/m/manic_street_preachers/slash_n_burn_tab_ver_3.html ]
            |---------|
                p.m
e--------------------------------------------|
b--------------------------------------------|
g----4-4--4/6-6-6-6-6-6--6-------------------|
d-2--4-4--4/6-6-6-6-6-6--6--2----------------|
a-2--2-2--2/4-4-4-4-4-4--4--2----------------|
E-0-------------------------0----------------|


Bit before solo:

Guitar 1:

e-7---------------|
b---7-------------|
g-----9-7---------|   Do this several times
d---------9-7-----|
a-------------9-7-|
E-----------------|

Guitar 2:                              p.m
                |--------------------------------------|
e---------------------     ----------------------------|
b---------------------     ----------------------------|
g-4-----7-----------9-  x4 -9/11-11-11-11-11-11--11----|
d-4-----7-----7-----9-     -9/11-11-11-11-11-11--11----|  x4
a-2-----5-----7-----7-     -7/9--9--9--9--9--9---9-----|
E-------------5-------     ----------------------------|

Solo:

e------------------------------|
b------------------------------|
g-----------4-----6-6-9-6-9-11-|   x3
d-6-4-6-4-6-4-6-8-6-6-9-6-9-11-|
a-6-4-6-4-6---6-8--------------|
E------------------------------|

e-------------------------------------------------11-14-14b16-16b14-|
b-------------------------------------------11-14-------------------|
g----------------------------------11-12-13-------------------------|
d-------------------------11-12-13----------------------------------|
a-6--------------11-12-13-------------------------------------------|
E-------11-13-14----------------------------------------------------|

Outro: This is played after the intro is played a few times:

e-----------------------------|
b---------------------2-2-0-2-|
g-9-9--7-7--6-6--4-4--2-2-2-2-|
d-9-9--7-7--6-6--4-4--2-2-2-2-|
a-7-7--5-5--4-4--2-2--0-0-0-0-|
E-----------------------------|

Thats it!
Comments