Manic Street Preachers - Slash And Burn Chords & Tabs

 

Slash And Burn Chords & Tabs

Manic Street Preachers Chords & Tabs

Version: 1 Type: Bass Tab 0 ratings
1 star 2 stars 3 stars 4 stars 5 stars
comments

Slash And Burn Bass Tab

   
manic street preanchers
Slash 'N' Burn
Generation Terrorists - Track 01

Riff 1
G|-----------|------------|------------|-----------|
D|-----------|------------|------------|-----------|
A|44444444|44444444|------------|-----------|
E|--------|---------------|22222222|22222222|

Riff 2
G|----------|----------|
D|----------|----------|
A|7-7-5-5-|4-4-2-4-|
E|----------|----------|

Riff 3
G|-----------------------|
D|-----------------------|
A|-2--/4--4-4-4-4--4\-|
E|-----------------------|

Riff 4
G|----------------------|
D|----------------------|
A|-----2----------2-2-|
E|-2-------------------|

Riff 5
G|------------------------|
D|------------------------|
A|/7--7-7-5-7-5-2--22-|
E|------------------------|

Riff 6
G|--------------------------|
D|--------------------------|
A|7--77--77--7--7-7777-|
E|--------------------------|
[ Tab from: http://www.guitartabs.cc/tabs/m/manic_street_preachers/slash_and_burn_btab.html ]
Riff 7
G|--------|--------|--------|--------|
D|--------|--------|--------|--------|
A|2------|5-------|0-------|7------|
E|--------|--------|--------|--------|

Riff 8
G|----------|
D|4--4--4-|
A|----------|
E|----------|

Riff 9
G|------------|
D|------------|
A|44444444|
E|------------|

Riff 10
G|------------|------------|-----------|
D|------------|------------|-----------|
A|7-7--5-5--|4-4--2-2--|0-0---0---|
E|------------|------------|----3------|



8 Bar Rest
Riff 1	x2
Riff 2	x1
Riff 3	x3
Riff 4	x1
Riff 3	x3
Riff 4	x1
Riff 5	x1
Riff 3	x2
Riff 5	x1
Riff 3	x1
Riff 6	x1
Riff 1	x2
Riff 3	x3
Riff 4	x1
Riff 3	x3
Riff 4	x1
Riff 5	x1
Riff 3	x2
Riff 5	x1
Riff 3	x1
Riff 6	x1
8 Bar Rest
Riff 1	x2
Riff 2	x1
Riff 7	x4
Riff 8	x8
Riff 9	x8
Riff 5	x1
Riff 3	x2
Riff 5	x1
Riff 3	x2
Riff 5	x1
Riff 3	x2
Riff 5	x1
Riff 3	x1
Riff 6	x1
Riff 1	x2
Riff 10	x1
Comments