Manic Street Preachers - P C P Chords & Tabs

 

P C P Chords & Tabs

Manic Street Preachers Chords & Tabs

Version: 3 Type: Tab 0 ratings
1 star 2 stars 3 stars 4 stars 5 stars
comments

P C P Tab

   
Author/Artist: Manic Street Preachers
Title: P.C.P.
Album: The Holy Bible

Intro -
                                    Ending... 
---------------0---0---0---0--------0---0---0---------------------------------
-----------------0-------0------------0-------0-------------------------------
-------------5-------5--------------------5-----0-----------------------------
-0--0--0-0-0------------------------------------------------------------------
------------------------------------------------------------------------------
------------------------------------------------------------------------------
                                                                              

------------------------------------------------------------------------------
------------------------------------------------------------------------------
-7-7-7-7-7-7-7-7-3-3-3-3-3-3-3-3-4-4-4-4-4-4-4-4-0----------------------------
-7-7-7-7-7-7-7-7-4-4-4-4-4-4-4-4-4-4-4-4-4-4-4-4-0-5-5-5-5-5-5-5--------------
-5-5-5-5-5-5-5-5-1-1-1-1-1-1-1-1-2-2-2-2-2-2-2-2-0-5-5-5-5-5-5-5--------------
---------------------------------------------------3-3-3-3-3-3-3--------------
                                                                              
Verse - Lots of intemittant palm muting, listen for timing
'Teacher starve your child...'
------------------------------------------------------------------------------
------------------------------------------------------------------------------
------------------------------------------------------------------------------
-7-7-7-7-7-7-7-7-7-4-4-4-4-4-4-4-4-4-4-4-4-4-4-4-4-4-4-----5-------------5----
-5-5-5-5-5-5-5-5-5-1-1-1-1-1-1-1-1-1-2-2-2-2-2-2-2-2-2--0--5-5-5-5-5-5-5-5-5--
-----------------------------------------------------------3-3-3-3-3-3-3-3-3--
                                                                              
[ Tab from: http://www.guitartabs.cc/tabs/m/manic_street_preachers/p_c_p_tab_ver_3.html ]
------------------------------------------------------------------------------
------------------------------------------------------------------------------
------------------------------------------------------------------------------
-----------5-5----------------------------------------------------------------
-5-5-5-5-5-5-5--0--------2----------------------------------------------------
-3-3-3-3-3-3-3-----------0----------------------------------------------------
                                                                              
Verse Fill -
------------------------------------------------------------------------------
-5---3------------------------------------------------------------------------
---4---2-4---2-4--------------------------------------------------------------
-----------4------------------------------------------------------------------
------------------------------------------------------------------------------
------------------------------------------------------------------------------
                                                                              
Bridge -
'P.....C....she speaks impotent and sterile...'
-0-------------3--------------------------------------------------------------
-0-------------3-------0--------0--3---------3-3------------------------------
-0-------------0-------0---0-0--0--0---------0-0---2-2---2-2----2----2-2------
-2-------------0-------2---0-0--2--0---------0-0---2-2---2-2----2----2-2------
-2-------------2-------2---2-2--2--2---------2-2---0-0---0-0----0----0-0------
-0-------------3-------0---3-3--0--3---------3-3-------------3bu--3-----------
                                                                              
Chorus -
'P C P.....'
------------------------------------------------------------------------------
------------------------------------------------------------------------------
------5-5-5-5-5-5-5-5-5-5------5-5-5-5-5-5-5-5-5-5-4-4-------------4-4-4------
-3-3--5-5-5-5-5-5-5-5-5-5--3-3-5-5-5-5-5-5-5-5-5-5-4-4-4-4-4-4-4-4-4-4-4--2---
-3-3--3-3-3-3-3-3-3-3-3-3--3-3-3-3-3-3-3-3-3-3-3-3-2-2-2-2-2-2-2-2-2-2-2--2---
-1-1-----------------------1-1--------------------------------------------0---
                                                                              
Solo -

------------------------------------------------------------------------------
---------------------------------------------------11bu-11bu-11bu-11bu-11bu---
-12bubd-11-12bubd-11-12bubd-11-12bubd-11-12bubd-11-13---13---13---13---13-----
------------------------------------------------------------------------------
------------------------------------------------------------------------------
------------------------------------------------------------------------------
                                                                              

---------------------------10---------------------12-14-15-14----12-----------
-11bu-11bu-12bu-14bu-14bu-----14p12----------14bu-------------15----12-15-----
-13---13---14---16------------------14p14---------------------------------14--
------------------------------------------14----------------------------------
------------------------------------------------------------------------------
------------------------------------------------------------------------------
                                                                              

------------------------------------------------------------------------------
-12---------------------------------------------------------------------------
----12-14----12---------------------------------------------------------------
----------14----12-14----12---------------------------------------------------
----------------------14------------------------------------------------------
------------------------------------------------------------------------------
                                                                              
Bridge 2 -

------------------------------------------------------------------------------
------------------------------------------------------------------------------
------------------------------------------------------------------------------
-14--14p12h14-14p12-----------------------------------------------------------
--------------------14--------------------------------------------------------
------------------------------------------------------------------------------
                                                                              
Outro -

------------------------------------------------------------------------------
------------------------------------------------------------------------------
-7-7-7-7-7-7-7--3-3-3-3-3--4-4-4-4-4-4---------------5-5-5-5-7-7-7-7-7-7-7----
-7-7-7-7-7-7-7--4-4-4-4-4--4-4-4-4-4-4---5-5-5-5-5-5-5-5-5-5-7-7-7-7-7-7-7----
-5-5-5-5-5-5-5--1-1-1-1-1--2-2-2-2-2-2-0-5-5-5-5-5-5-3-3-3-3-5-5-5-5-5-5-5----
-----------------------------------------3-3-3-3-3-3--------------------------
                                                                              
                 ...designer..amnesia-a-a-a-a-a-a-a-a-a-a-a-ac 
------------------------------------------------------------------------------
--------------------------------------------------------------7---------------
-3-3-3-3-3-3-3-3-3--4-4-4-4-4-4-4-4---------------------------7---------------
-4-4-4-4-4-4-4-4-4--4-4-4-4-4-4-4-4---5-5-5-5-5-5-5-5-5-5-5-7-7---------------
-1-1-1-1-1-1-1-1-1--2-2-2-2-2-2-2-2-0-5-5-5-5-5-5-5-5-5-5-5-7-5---------------
--------------------------------------3-3-3-3-3-3-3-3-3-3-3-5-----------------
                                                            
I downloaded this tab from www.manicsguitar.co.uk if you need manics tabs give 
the site a visit,It's great.                
Comments