Manic Street Preachers - Of Walking Abortion Chords & Tabs

 

Of Walking Abortion Chords & Tabs

Manic Street Preachers Chords & Tabs

Version: 4 Type: Tab 0 ratings
1 star 2 stars 3 stars 4 stars 5 stars
comments

Of Walking Abortion Tab

Manic Street Preachers
This Is Yesterday (solo)
Apears on the album :The Holy Bible
Tabbed BY:LIKO


E-|--------------------------------------------------------|
B-|--------------------------------------------------------|
G-|-4/16-16-16-16-16\14-14-14-14\12-12-12-12\11-11-11-11\9-|
D-|--------------------------------------------------------|
A-|--------------------------------------------------------|
E-|--------------------------------------------------------|

[ Tab from: http://www.guitartabs.cc/tabs/m/manic_street_preachers/of_walking_abortion_tab_ver_4.html ]
E-|----------------------------------------------------|
B-|----------------------------------------------------|
G-|-9-9-9\7-7-7-7\5-5-5-5\4-4-4-4bu5rb4-2-4-2----------|
D-|--------------------------------------------7/9-7-5-|
A-|----------------------------------------------------|
E-|--------------------------------------------5/7-5-3-|


E-|-----------------------------------------------|
B-|-----------------------------------------------|
G-|-5/9-12-11-9-11-11ho12po11-11po9-------------9-|
D-|---------------------------------12po9---12----|
A-|-----------------------------------------------|
E-|-----------------------------------------------|


E-|---------------------------------------------|
B-|-10po8-8/10-10/12-12/15-15/20-20\17-20bu22\\-|
G-|---------------------------------------------|
D-|---------------------------------------------|
A-|---------------------------------------------|
E-|---------------------------------------------|
Comments