Manic Street Preachers - Of Walking Abortion Chords & Tabs

 

Of Walking Abortion Chords & Tabs

Manic Street Preachers Chords & Tabs

Version: 3 Type: Tab 0 ratings
1 star 2 stars 3 stars 4 stars 5 stars
comments

Of Walking Abortion Tab

   
Manic Street Preachers
Of Walking Abortion
Tabbed By:Liko

Intro
e|---------------------------------------------------------------------|
B|---------------------------------------------------------------------|
G|--natural-harmonics-randomly-up-and-down-the-fret-board--------------|
D|-x-x-x-x-x-x-x-x-x-x-x-x-x-x-x-x-x-x-x-x-x-x-x-x-x-x-x-x-------------|
A|-x-x-x-x-x-x-x-x-x-x-x-x-x-x-x-x-x-x-x-x-x-x-x-x-x-x-x-x-------------|
E|----------------------------------------------------------5bu7~~~~---|

e|---------------------------------------------------------------------|
B|---------------------------------------------------------------------|
G|--natural-harmonics-randomly-up-and-down-the-fret-board--------------|
D|-x-x-x-x-x-x-x-x-x-x-x-x-x-x-x-x-x-x-x-x-x-x-x-x-x-x-x-x-------------|
A|-x-x-x-x-x-x-x-x-x-x-x-x-x-x-x-x-x-x-x-x-x-x-x-x-x-x-x-x-------------|
E|----------------------------------------------------------6bu8~~~~---|

e|-5--5-5--5-5--5--5-5--5-5--6--6-6--6-6--6--6bu8~~~~~~-----|
B|-5--5-5--5-5--5--5-5--5-5--6--6-6--6-6--6--6bu8~~~~~~-----|
G|----------------------------------------------------------|
D|----------------------------------------------------------|
A|----------------------------------------------------------|
E|----------------------------------------------------------|

e|---------------------------------------------------------------|
B|---------------------------------------------------------------|
G|---------------------------------------------------------------|
D|---------5s4--------------------------------5s4----------------|
A|---7-5-7-----5------------------------7-5-7-----5--------------|
E|-5-------------5bu7~~~~~------------5-------------6bu8~~~~~~~~-|

Verse Riff 
e|------------------------------------------------------------------|
B|------------------------------------------------------------------|
G|------------------------------------------------------------------|
D|---------5s4--------------------------------5s4-------------------|
A|---7-5-7-----5------------------------7-5-7-----5-----------------|
E|-5-------------5-5-5-5-5-5-5-5-5----5-------------6-6-6-6-6-6-6-6-|

Verse 1
Life is lead weights, pendulum died
Pure or lost, spectator or crucified
Recognised truth acedia's blackest hole
Junkies whinos whores the nation's moral suicide

Pre-Chorus Riff
e|--------------------------------------------------|
B|--------------------------------------------------|
G|--------5-----------5-----------5-----------5-----|
D|--------------------------------------------------|
A|--3-----------3-----------3-----------3-----------|
E|--------------------------------------------------|
    Loser                   liar 

e|--------------------------------------------------|
B|--------------------------------------------------|
G|--------5-----------5-----------5-----------5-----|
D|--------------------------------------------------|
A|--1-----------1-----------1-----------1-----------|
E|--------------------------------------------------|
    fake and phoney         No-one cares

e|--------------------------------------------------|
B|--------------------------------------------------|
G|--------5-----------5-----------5-----------5-----|
D|--------------------------------------------------|
A|--3-----------3-----------3-----------3-----------|
E|--------------------------------------------------|
    everyone is guilty

e|--------------------------------------------------|
B|--------------------------------------------------|
G|--------5-----------5-----------5-----2~~~~~~-----|
D|--------------------------------------2~~~~~~-----|
A|--1-----------1-----------1-----------0~~~~~~-----|
E|--------------------------------------------------|
    Fucked up - dunno why - you         poor little boy
[ Tab from: http://www.guitartabs.cc/tabs/m/manic_street_preachers/of_walking_abortion_tab_ver_3.html ]
Chorus 1
Eb5    D5     C#5     C5
We are all of walking abortion
Eb5    D5       C#5    C5
Shalom, shalom, we all love our children
Eb5    D5     C#5     C5
We are all of walking abortion
Eb5     D5      C#5          C5
Shalom, shalom, there are no horizons

Middle
e|---------------------------------------------------------------------|
B|---------------------------------------------------------------------|
G|--natural-harmonics-randomly-up-and-down-the-fret-board--------------|
D|-x-x-x-x-x-x-x-x-x-x-x-x-x-x-x-x-x-x-x-x-x-x-x-x-x-x-x-x-------------|
A|-x-x-x-x-x-x-x-x-x-x-x-x-x-x-x-x-x-x-x-x-x-x-x-x-x-x-x-x-------------|
E|----------------------------------------------------------5bu7~~~~---|

e|---------------------------------------------------------------------|
B|---------------------------------------------------------------------|
G|--natural-harmonics-randomly-up-and-down-the-fret-board--------------|
D|-x-x-x-x-x-x-x-x-x-x-x-x-x-x-x-x-x-x-x-x-x-x-x-x-x-x-x-x-------------|
A|-x-x-x-x-x-x-x-x-x-x-x-x-x-x-x-x-x-x-x-x-x-x-x-x-x-x-x-x-------------|
E|----------------------------------------------------------6bu8~~~~---|

e|-10----------------|
B|------11~~~~bu13---|
G|-------------------|
D|-------------------|
A|-------------------|
E|-------------------|

e|---------------------------------------------------------------|
B|---------------------------------------------------------------|
G|---------------------------------------------------------------|
D|---------5s4--------------------------------5s4----------------|
A|---7-5-7-----5------------------------7-5-7-----5--------------|
E|-5-------------5bu7~~~~~------------5-------------6bu8~~~~~~~~-|

Verse 2 (as verse 1)
Mussolini hangs from a butcher's hook
Hitler reprised in the worm of your soul
Horthy's corpse screened to a million
Tisu revived, the horror of a bullfight

Pre-Chorus 2 (as Pre-Chorus 1)
Fragments of uniforms, open black ruins
A moral conscience - you've no wounds to show
So wash your car in your 'X' baseball shoes

Chorus 2 (as Chorus 1)
We are all of walking abortion
Shalom, shalom, we all love our children
We are all of walking abortion
Shalom, shalom, there are no horizons

Outro

e|----------------------------------|
B|----------------------------------|
G|----------------------------------|
D|----------------------------------| x2
A|-0--0---1---------0--0---1--------|
E|-----------0---3------------0--3--|

e|----------------------------------|
B|----------------------------------|
G|----------------------------------|
D|----------------------------------|
A|-0--0---1---------0--0---1--------|
E|-----------0---3------------0--3--|
   Little people in little houses

e|----------------------------------|
B|----------------------------------|
G|----------------------------------|
D|----------------------------------|
A|-0--0---1---------0--0---1--------|
E|-----------0---3------------0--3--|
Like maggots, small, blind and worthless

e|----------------------------------|
B|----------------------------------|
G|----------------------------------|
D|----------------------------------|
A|-0--0---1---------0--0---1--------|
E|-----------0---3------------0--3--|
The massacred blood stains us all

e|------------------------------------|
B|-10--12--5--8------10--12--5--8-----|
G|-9---11--4--7------9---11--4--7-----|
D|------------------------------------|
A|------------------------------------|
E|------------------------------------|
Who's responsible - you fucking are

e|------------------------------------|
B|-10--12--5--8------10--12--5--8-----|
G|-9---11--4--7------9---11--4--7-----|
D|------------------------------------|
A|------------------------------------|
E|------------------------------------|
Who's responsible - you fucking are

e|------------------------------------|
B|-10--12--5--8------10--12--5--8-----|
G|-9---11--4--7------9---11--4--7-----|
D|------------------------------------|
A|------------------------------------|
E|------------------------------------|
Who's responsible - you fucking are

e|----------------------------|
B|-10--12--5--8---------------|
G|-9---11--4--7------2~~~~~~~-|
D|-------------------2~~~~~~~-|
A|-------------------0~~~~~~~-|
E|----------------------------|
     Who's responsible
Comments