Manic Street Preachers - No Surface All Feeling Chords & Tabs

 

No Surface All Feeling Chords & Tabs

Manic Street Preachers Chords & Tabs

Version: 2 Type: Tab 0 ratings
1 star 2 stars 3 stars 4 stars 5 stars
comments

No Surface All Feeling Tab

   
#----------------------------------PLEASE NOTE---------------------------------#
#This file is the author's own work and represents their interpretation of the #
#song. You may only use this file for private study, scholarship, or research. #
#------------------------------------------------------------------------------#

Manic Street Preachers - No Surface All Feeling
 Of 1996's 'Everything Must Go'
Tabbed by Custy - Custy@barrysworld.com

Couldn't find a tab for the intro for this anywhere on the net so i decided to
transcribe it myself. Pretty simple stuff, but only really sounds good with 2
guitars and of course a bass. Enjoy :)...

E 	- 022100
F#m 	- 244222
Am	- 577555
G#maddb6- x66400
F#m11	- x44200
Asus2	- x02200
E5	- 02xxxx
G#m	- x6640x

b = bend
P = pulloff
h = hammeron

In the intro and chorus the #1 means you play that the first time round repeat to
beggining and replace #1 for #2

-Intro- (High Distortion) 
  E                                                                       F#m
e|--------16----------------14----------------12----------------11----------------9-------|
B|----12------12--------12------12--------12------12--------12------12--------10-----10---|
G|13-------------13-13-------------13-13-------------13-13-------------13-11------------13|
D|----------------------------------------------------------------------------------------|
A|----------------------------------------------------------------------------------------|
E|----------------------------------------------------------------------------------------|

                                         #1                                   #2
                        |----------------------------------|-----------------------------------|
              Am
e|--9--------------------12---------15p12-12--------------<|12---------15p12----15p12---------<|
B|-----10------------13------13-13-----------13-13--------<|----13-13--------13-------13-12---<|
G|9--------11-11h14---------------------------------14-14-<|--------------------------------14<|
D|--------------------------------------------------------<|----------------------------------<|
A|--------------------------------------------------------<|----------------------------------<|
E|--------------------------------------------------------<|----------------------------------<|

      #3 
 |-----------||
e|-13__------||
B|-----------||
G|-----------||
D|-----------||
A|-----------||
E|-----------||



-Verse- (Med Distort)

E      				 G#maddb6
  Embarrassed possessed and so uncivilised 
[ Tab from: http://www.guitartabs.cc/tabs/m/manic_street_preachers/no_surface_all_feeling_tab_ver_2.html ]
G|-4-3-|
D|-6-5-|

F#m11				      Asus2
  Just take a look at the whites of my eyes

E			 G#maddb6
  See me now and I will apologise

G|-4-3-|
D|-6-5-|

F#m				 Asus2
  For me for you we knew they were lies

e|-9--------------|
B|-10-------------|
G|-9---6p4-2------|
D|-----------h6p4-|

E5				G#m
  It makes me angry ashamed but really alive

F#m			      A5
  It may of worked but at what price?

B|---------2b4b2---|
E|-2b3b2-0-------4-|

E			     G#m
  What's the point of always looking back,

F#m				   A5
  When all you see is more and more junk.



-Chorus- (Heavy Distort)

E			  F#m		Am
It was no surface but all feeling

E				F#m		Am
Maybe at the time it felt like dreaming


  E                                                                       F#m
e|--------16--------------14--------------12--------------11----------------9-------|
B|----12------12------12------12------12------12------12------12--------10-----10---|
G|13--------------13--------------13--------------13-------------13-11------------13|
D|----------------------------------------------------------------------------------|
A|----------------------------------------------------------------------------------|
E|----------------------------------------------------------------------------------|

                                 #1                     #2                    
                  |-----------------------------|---------------|
               Am
e|---9-----------------12------15--12----------<|---------------||
B|------10---------13------13----------13------<|-13^^^^--------||
G|-9--------11-14--------------------------14--<|---------------||
D|---------------------------------------------<|---------------||
A|---------------------------------------------<|---------------||
E|---------------------------------------------<|---------------||

Maybe richer maybe wiser,
seems so easy to not go too far,
beg me to stop hate my face I know,
and tell me forever just to go.
Just one thing before I get to sleep,
and nothing here but the stains on my teeth,
no not blood just liquid from you,
I only wish it was the truth

Feel the guilt of a sinner,
feel the cold of a winter.
It was no surface but all feeling,
maybe at the time it felt like dreaming.



-Solo- (

Improvise around the basic chord structure of the song, i don't have the time to tab it.

Comments, suggestions, usual barrage of abuse to Custy@barrysworld.com
Comments