Manic Street Preachers - Motown Junk Chords & Tabs

 

Motown Junk Chords & Tabs

Manic Street Preachers Chords & Tabs

Version: 2 Type: Bass Tab 0 ratings
1 star 2 stars 3 stars 4 stars 5 stars
comments

Motown Junk Bass Tab

   
Bass Tab:  Motown Junk
Artist:    Manic Street Preachers
Tabbed By: Joe Osborne joe@osborne94.freeserve.co.uk

Intro:
                          x3  
G-|-------------------------|
D-|-------------------------|
A-|-5-5-5-5---------2-2-2-2-|
E-|---------3-3-3-3---------|

Verse & Solo:
                                                x2 (x1 during solo)  
G-|----------------------------------------------------------------|
D-|----------------------------------------------------------------|
A-|5-5-5-5-5-5-5-5-5-5-5-5-5-5-5-5---------------------------------|
E-|--------------------------------3-3-3-3-3-3-3-3-3-3-3-3-3-3-3-3-|
[ Tab from: http://www.guitartabs.cc/tabs/m/manic_street_preachers/motown_junk_btab_ver_2.html ]
Chorus:
                                  x2 End With:
G-|---------------------------------|-----------------|
D-|---------------------------------|-----------------|
A-|-5-5-5-5---------2-2-2-2-0-0-0-0-|-5-5-5-5-5-5-5-5-|
E-|---------3-3-3-3-----------------|-----------------|

Bridge:                                  Back Into Verse
                    x4                   (Only on first bridge):
G-|-------------------|-----------------|---------------|
D-|-------------------|-----------------|---------------|
A-|-5-5-5-5-5-5-0-2-5-|-5-5-5-5-5-5-5-5-|-0-2-5-5-0-2-5-|
E-|-------------------|-----------------|---------------|

Play Until The End:

G-|-----------------|
D-|-----------------|
A-|-5-5-5-5-5-5-5-5-|
E-|-----------------|

Intro
Verse
Chorus
Bridge
Solo
Verse
Chorus
Bridge
Play Until The End


Comments