Manic Street Preachers - Motorcycle Emptiness Chords & Tabs

 

Motorcycle Emptiness Chords & Tabs

Manic Street Preachers Chords & Tabs

Version: 2 Type: Tab 1 rating
1 star 2 stars 3 stars 4 stars 5 stars
comments

Motorcycle Emptiness Tab

   
Motorcycle Emptiness
Manic Street Preachers

ALL the lead parts on this one INCLUDING the full outro that no-one has done yet. Nothing
here's just copy n' pasted off anyone else, but the groundwork was other people's.

Tip for tabbers: make sure you know all of the song before you set your heart on tabbing it
as I have been stuck on the end of Iggy Pop's China Girl for ages. Will not therefore start
Bowie's Station til i'm good + ready. Look out for tab of the (better) Heveanly records version
of You Love Us from me at some point.

Right, the rhythm part's not really what i'm focusing on, not particularly noticable (though
it does add to the song's driving rhythm) but here are the chords I use:

   E   B   C#m A   E (during solo)  G
e|-7---7---4---5---0----------------3-|
B|-9---7---5---5---0----------------3-|
G|-9---8---6---6---1----------------4-|
D|-9---9---6---7---2----------------5-|
A|-7---9---4---7---2----------------5-|
E|-----7-------5---0----------------3-| 

strumming pattern is fairly obvious - same as bass most of the time, rhythm guitar pretty 
much clean, not sure if it plays during the bridge. Here we go then; full generation terrorists version...

KEY:
b = bend whole step (unless otherwise mentioned)
r = release bend
h = hammer on
p = pull off
P.M.-- = palm mute this section
~ = vibrato
/ = slide

Play the lead on neck pickup, turn the tone to more bass on your guitar (my tele's only got one tone
knob, dunno about other guitars)

INTRO:

James'll usually add vibrato to the "signature" bends such as these, but I haven't put it in 
to save space

   E             B(D# for bass)  C#m     A
                                         P.M.-------------------
e|-----------------------------|--------------------------------|
B|-----------------------------|--------------------------------|
G|-4b--r-2h4-2h4-4b--r-2h4-2h4-|-4b--r-2-2h4-4-4h6-6-6h8-8-8h9-9|
D|-----------------------------|--------------------------------|
A|-----------------------------|--------------------------------|
E|-----------------------------|--------------------------------|


   E                     B(D# for bass)   C#m      A
                                                   P.M.-------------------
e|--------------------------------------|---------------------------------|
B|--------------------------------------|---------------------------------|
G|-13-B-r-11h13-11h13-13-B-r-11h13-11h13|-13-B-r-2-2h4-4-4h6-6-6h8-8-8h9-9|
D|--------------------------------------|---------------------------------|
A|--------------------------------------|---------------------------------|
E|--------------------------------------|---------------------------------|
  (the 13 is ONLY a half step bend and there is a slight gap between plucking 
   the string and bending that deos not happen later on, probably as he's 
   finding how far he needs to bend on the first one; it sounds rubbish if 
   you bend too far on it. All bends at G|-13- are half step)


VERSE 1:

   E             B(D# for bass)  C#m           A 
e|-----------------------------|-----------------------------|
B|-----------------------------|-----------------------------|
G|-9~~~~~~~~~~~~~~~~~~~~~~~~~~~|-----------------------------|
D|-----------------------------|-----------------------------|
A|-----------------------------|-----------------------------|
E|-----------------------------|-----------------------------|


   E                     B(D# for bass)   C#m      A
                                                   P.M.-------------------
e|--------------------------------------|---------------------------------|
B|--------------------------------------|---------------------------------|
G|-16b--r-14h16-14h16-16b--r-14h16-14h16|-16b--r-2-2h4-4-4h6-6-6h8-8-8h9-9|
D|--------------------------------------|---------------------------------|
A|--------------------------------------|---------------------------------|
E|--------------------------------------|---------------------------------|



   E             B(D# for bass)  C#m           A 
e|-----------------------------|-----------------------------|
B|-----------------------------|-----------------------------|
G|-9~~~~~~~~~~~~~~~~~~~~~~~~~~~|-----------------------------|
D|-----------------------------|-----------------------------|
A|-----------------------------|-----------------------------|
E|-----------------------------|-----------------------------|



   E                     B(D# for bass)   C#m        A
e|--------------------------------------|--------------------------|
B|--------------------------------------|--------------------------|
G|-13b--r-11h13-11h13-13b--r-11h13-11h13|-13b--r-13/-2---h4----/6-/|
D|--------------------------------------|--------------------------|
A|--------------------------------------|--------------------------|
E|--------------------------------------|--------------------------|


BRIDGE:


   C#m           E               B                 A 
e|-----------------------------|--------------------------------|
B|-----------------------------|--------------------------------|
G|-9---------------------------|-14b--r13----13h14-14b--r--13h14|
D|-----------------------------|----------14--------------------|
A|-----------------------------|--------------------------------|
E|-----------------------------|--------------------------------|
  (don't make the slide to 9 too
   noticeable here)

   A              A              A
e|-----------------------------|--------------|
B|-----------------------------|--------------|
G|-14b--r--13h14--14b--r~~~~~~~|--------------|
D|-----------------------------|--------------|
A|-----------------------------|--------------|
E|-----------------------------|-----------12/|
                                  ^
                               (half a bar)

CHORUS:


   E             B(D# for bass)  C#m           A
e|-----------------------------|-----------------------------|
B|-----------------------------|-----------------------------|
G|-9---------------------------|-9---------------------------|
D|-9---------------------------|-9---------------------------|
A|-7---------------------------|-7---------------------------|
E|-0------------------------12/|-0---------------------------|


   E             B(D# for bass)  C#m           A
e|-----------------------------|-----------------------------|
B|-----------------------------|-----------------------------|
G|-9---------------------------|-9---------------------------|
D|-9---------------------------|-9---------------------------|
A|-7---------------------------|-7---------------------------|
E|-0------------------------12/|-0---------------------------|


   E             B(D# for bass)  C#m     A
                                         P.M.-------------------
e|-----------------------------|--------------------------------|
B|-----------------------------|--------------------------------|
G|-4b--r-2h4-2h4-4b--r-2h4-2h4-|-4b--r-2-2h4-4-4h6-6-6h8-8-8h9-9|
D|-----------------------------|--------------------------------|
A|-----------------------------|--------------------------------|
E|-----------------------------|--------------------------------|


VERSE 2 = VERSE 1 X1

BRIDGE 2:


   C#m           E               B                 A 
e|-----------------------------|--------------------------------|
B|-----------------------------|--------------------------------|
G|-9---------------------------|-14b--r13----13h14-14b--r--13h14|
D|-----------------------------|----------14--------------------|
A|-----------------------------|--------------------------------|
E|-----------------------------|--------------------------------|
  (The 9 is noticeable this time)

   A              A              A
e|-----------------------------|--------------|
B|-----------------------------|--------------|
G|-14b--r--13h14--14b--r~~~~~~~|--------------|
D|-----------------------------|--------------|
A|-----------------------------|--------------|
E|-----------------------------|-----------12/|
                                  ^
                               (half a bar)


CHORUS 2:


   E             B(D# for bass)  C#m           A
e|-----------------------------|-----------------------------|
B|-----------------------------|-----------------------------|
G|-9---------------------------|-9---------------------------|
D|-9---------------------------|-9---------------------------|
A|-7---------------------------|-7---------------------------|
E|-0------------------------12/|-0---------------------------|


   E             B(D# for bass)  C#m           A
e|-----------------------------|-----------------------------|
B|-----------------------------|-----------------------------|
G|-9---------------------------|-9---------------------------|
D|-9---------------------------|-9---------------------------|
A|-7---------------------------|-7---------------------------|
E|-0------------------------12/|-0---------------------------|


BREAK:

I remember reading something different in a guitar magazine that 
probably was more right, but i have forgotten it and I remember 
their solo was rubbish anyway. 1 guitar only i reckon.

   A               B                A               B
  P.M.-------------------------------------------------------------
e|--------------------------------|--------------------------------|
B|---------2---------------4------|---------2---------------4------|
G|-----2-----2---2-----4-----4---4|-----2-----2---2-----4-----4---4|
D|---2---2-----2-----4---4-----4--|---2---2-----2-----4---4-----4--|
A|-0---------------2--------------|-0---------------2--------------|
E|--------------------------------|--------------------------------|


   C               D                C               D
  P.M.-------------------------------------------------------------
e|---------5---------------7------|---------5---------------7------|
B|-----------5---5-----------7---7|-----------5---5-----------7---7|
G|-----5-------5-------7-------7--|-----5-------5-------7-------7--|
D|---5---5-----------7---7--------|---5---5-----------7---7--------|
A|-3---------------5--------------|-3---------------5--------------|
E|--------------------------------|--------------------------------|


   A               B                A               B
  P.M.-------------------------------------------------------------
e|--------------------------------|--------------------------------|
B|---------2---------------4------|---------2---------------4------|
G|-----2-----2---2-----4-----4---4|-----2-----2---2-----4-----4---4|
D|---2---2-----2-----4---4-----4--|---2---2-----2-----4---4-----4--|
A|-0---------------2--------------|-0---------------2--------------|
E|--------------------------------|--------------------------------|

[ Tab from: http://www.guitartabs.cc/tabs/m/manic_street_preachers/motorcycle_emptiness_tab_ver_2.html ]
   C               D                C               D
  P.M.-------------------------------------------------------------
e|---------5---------------7------|---------5---------------7------|
B|-----------5---5-----------7---7|-----------5---5-----------7---7|
G|-----5-------5-------7-------7--|-----5-------5-------7-------7--|
D|---5---5-----------7---7--------|---5---5-----------7---7--------|
A|-3---------------5--------------|-3---------------5--------------|
E|--------------------------------|--------------------------------|


   A               B                A               B
  P.M.-------------------------------------------------------------
e|--------------------------------|--------------------------------|
B|---------2---------------4------|---------2---------------4------|
G|-----2-----2---2-----4-----4---4|-----2-----2---2-----4-----4---4|
D|---2---2-----2-----4---4-----4--|---2---2-----2-----4---4-----4--|
A|-0---------------2--------------|-0---------------2--------------|
E|--------------------------------|--------------------------------|


   C               D                C               D
  P.M.----------------------------------------------
e|---------5---------------7------|---------5-------5--------------|
B|-----------5---5-----------7---7|-----------5---5-7--------------|
G|-----5-------5-------7-------7--|-----5-------5---7--------------|
D|---5---5-----------7---7--------|---5---5---------7--------------|
A|-3---------------5--------------|-3---------------5--------------|
E|--------------------------------|-----------------------------12/|


CHORUS 3:


   E             B(D# for bass)  C#m           A
e|-----------------------------|-----------------------------|
B|-----------------------------|-----------------------------|
G|-9---------------------------|-9---------------------------|
D|-9---------------------------|-9---------------------------|
A|-7---------------------------|-7---------------------------|
E|-0------------------------12/|-0---------------------------|


   E             B(D# for bass)  C#m           A
e|-----------------------------|-----------------------------|
B|-----------------------------|-----------------------------|
G|-9---------------------------|-9---------------------------|
D|-9---------------------------|-9---------------------------|
A|-7---------------------------|-7---------------------------|
E|-0------------------------12/|-0---------------------------|


SOLO:


   E                G            A                   E
e|-----------------------------|-------------------------------|
B|-12br----------12-15b----r-14|-14br-12-p9-12-p9--------12----|
G|------13----13---------------|------------------11-11b----r--|
D|---------14------------------|-------------------------------|
A|-----------------------------|-------------------------------|
E|-----------------------------|-------------------------------|


   E                G              A                                           A
e|----------------------15-----12|-12h15p12---12h15p12---12h15p12---12h15p12----------------|
B|-12br----------12-15b----15r---|---------15---------12---------12---------15-15b----------|
G|------13----13-----------------|----------------------------------------------------------|
D|---------14--------------------|----------------------------------------------------------|
A|-------------------------------|----------------------------------------------------------|
E|-------------------------------|----------------------------------------------------------|
                            ^
          (re-pick the 15 while still bent then release)



VERSE 3:

(No rhythm playing)
   E             B(D# for bass)  C#m           A 
e|-----------------------------|-----------------------------|
B|-----------------------------|-----------------------------|
G|-8brp6h8brp6h8-brp6h8brp6h8--|-----------------------------|
D|-----------------------------|-----------------------------|
A|-----------------------------|-----------------------------|
E|-----------------------------|-----------------------------|
   ^
(a HALF STEP bend only, pretty slow, written close together to save space,
 I suggest you only hit the string for the first 8 + let it get quieter
 each time)

(Rhythm playing)
   E                     B(D# for bass)   C#m      A
                                                   P.M.-------------------
e|--------------------------------------|---------------------------------|
B|--------------------------------------|---------------------------------|
G|-13b--r-11h13-11h13-13b--r-11h13-11h13|-13b--r-2-2h4-4-4h6-6-6h8-8-8h9-9|
D|--------------------------------------|---------------------------------|
A|--------------------------------------|---------------------------------|
E|--------------------------------------|---------------------------------|


(No rhythm playing)

   E             B(D# for bass)  C#m           A 
e|-----------------------------|-----------------------------|
B|-----------------------------|-----------------------------|
G|-8brp6h8brp6h8-brp6h8brp6h8--|-----------------------------|
D|-----------------------------|-----------------------------|
A|-----------------------------|-----------------------------|
E|-----------------------------|-----------------------------|


BRIDGE 3:


   C#m           E               B                 A 
e|-----------------------------|--------------------------------|
B|-9---------------------------|--------------------------------|
G|-11b------9h11p9~~~~~~~~~~~~~|-14b--r13----13h14-14b--r--13h14|
D|-----------------------------|----------14--------------------|
A|-----------------------------|--------------------------------|
E|-----------------------------|--------------------------------|


   A              A              A
e|-----------------------------|-12-----------|
B|-----------------------------|----12--------|
G|-14b--r--13h14--14b----------|-------r------|
D|-----------------------------|--------------|
A|-----------------------------|--------------|
E|-----------------------------|-----------12/|
                                  ^
                               (half a bar)


FINAL CHORUS + OUTRO


   E             B(D# for bass)  C#m           A
e|-----------------------------|-----------------------------|
B|-----------------------------|-----------------------------|
G|-9---------------------------|-9---------------------------|
D|-9---------------------------|-9---------------------------|
A|-7---------------------------|-7---------------------------|
E|-0------------------------12/|-0---------------------------|


   E             B(D# for bass)  C#m           A
e|-----------------------------|-----------------------------|
B|-----------------------------|-----------------------------|
G|-9---------------------------|-9-------------------------13|
D|-9---------------------------|-9---------------------------|
A|-7---------------------------|-7---------------------------|
E|-0------------------------12/|-0---------------------------|


   E                                            B(D# for bass)
e|------------------------------------------------------------------------------------------|
B|------12------12------12-------12-------12---------12------12------12-------12-------12---|
G|-13h14---13h14---13h14---13h14----13h14-------13h14---13h14---13h14---13h14----13h14------|
D|------------------------------------------------------------------------------------------|
A|------------------------------------------------------------------------------------------|
E|------------------------------------------------------------------------------------------|

   C#m                    A
e|-----16---------------------16---------------|
B|---------------------------------------------|
G|-18b----18p16---16-h18--18b----18p16---16-h18|
D|-------------18---------------------18-------|
A|---------------------------------------------|
E|---------------------------------------------|



   E                      B(D# for bass)  C#m           A
e|----------------------------------------------|----------------------------------------------|
B|----------------------------------------------|----------------------------------------------|
G|-11b-rp9---9---------9--11b-rp9---9---------9-|-11b-rp9---9---------9--11b-rp9---9---------9-|
D|--------11---11-9h11-----------11---11-9h11---|--------11---11-9h11-----------11---11-9h11---|
A|----------------------------------------------|----------------------------------------------|
E|----------------------------------------------|----------------------------------------------|


(At this point the singing stops on a phrase from a Patrick Jones poem, but partly 'borrowed' I
 think by Patrick from Manics fave Camus' 'The Fall')


   E                                       B(D# for bass)                       C#m                A
e|----------------------------------------------------------------------------|-----------------------------|
B|------12p10-----12p10-----12p10-----12p10-----12p10-----12p10---------------|-----------------------------|
G|-13p11-----13p11-----13p11-----13p11-----13p11-----13p11-----13p11-13-13b--r|-13b--r-11h13-11h13-13b--r-13|
D|----------------------------------------------------------------------------|-----------------------------|
A|----------------------------------------------------------------------------|-----------------------------|
E|----------------------------------------------------------------------------|-----------------------------|


   E                           B(D# for bass)                      C#m                A
e|---------------------------------------------------------------|-----------------------------|
B|----------------------------------12--12--12-14b-r14-12h14p12--|-14b--r-12h14-12h14-14b--r---|
G|-----9--9--9-11b-r11-9h11p9--11h13--13--13-------------------13|-----------------------------|
D|-9h11-11-11----------------------------------------------------|-----------------------------|
A|---------------------------------------------------------------|-----------------------------|
E|---------------------------------------------------------------|-----------------------------|
                                                       {---------}
                                                   This bit's pretty quick

   E                B(D# for bass)    C#m              A
e|----------------------------------|----------------------------------|
B|-9----------------9---------------|-9----------------9---------------|
G|-11b-r-9--------9-11b-r-9--------9|-11b-r-9--------9-11b-r-9--------9|
D|---------11-9h11----------11-9h11-|---------11-9h11----------11-9h11-|
A|----------------------------------|----------------------------------|
E|----------------------------------|----------------------------------|


   E                  B(D# for bass)      C#m      A
                                                   P.M.-------------------
e|--------------------------------------|---------------------------------|
B|-14-----------------14----------------|-14------------------------------|
G|-16b--r-14h16-14h16-16b--r-14h16-14h16|-16b--r-2-2h4-4-4h6-6-6h8-8-8h9-9|
D|--------------------------------------|---------------------------------|
A|--------------------------------------|---------------------------------|
E|--------------------------------------|---------------------------------|
  (might not be B|-14-, could be B|-17-, but it is something in addition to
   the G|-16b-)

   E
e|-----------------------------|
B|-----------------------------|
G|-9---------------------------|
D|-9---------------------------|
A|-7---------------------------|
E|-0---------------------------|




I believe epic is the word.
Comments