Manic Street Preachers - Masses Against The Classes Chords & Tabs

 

Masses Against The Classes Chords & Tabs

Manic Street Preachers Chords & Tabs

Version: 2 Type: Tab 0 ratings
1 star 2 stars 3 stars 4 stars 5 stars
comments

Masses Against The Classes Tab

   
BAND: MANIC STREET PREACHERS
SONG: MASSES AGAINST THE CLASSES
ALBUM: GREATEST HITS
TABBED BY:LIKO


Intro:
e -x------------------------------------------------------------|
b -x------------------------------------------------------------|
g -1-----------9-9-9-9-9-9-9-9-9-9-9-9-9-9-9-9-9-9-9-9-9-9-9-9--|
d -2-----------9-9-9-9-9-9-9-9-9-9-9-9-9-9-9-9-9-9-9-9-9-9-9-9--|
a -2-----------6s7-7-7-7-6s7-7-7-7-6s7-7-7-6s7-7-7-7-7-7-7-7-7--|
e -x-----------x-x-x-x-x-x-x-x-x-x-x-x-x-x-x-x-x-x-x-x-x-x-x-x--|
Aah aah aah aah aah aah 1-2-3-4---------------------------------| ARRGGGH

Verse 1:
e -------------------------------------------------|
b -------------------------------------------------|
g -------------------------------------------------|
d -6-6-6-6-6-6-6-6-6-6-6-4-2-2-2-2-2-2-2-2-2-2-2-4-|
a -6-6-6-6-6-6-6-6-6-6-6-x-2-2-2-2-2-2-2-2-2-2-2-x-|
e -4-4-4-4-4-4-4-4-4-4-4-2-0-0-0-0-0-0-0-0-0-0-0-2-|
Hello it's us again we're still so in love with you

e -----------------------------------------------|
b -----------------------------------------------|
g -4-4-4-4-4-4-4-4-4-4-4-4-----------------------|
d -4-4-4-4-4-4-4-4-4-4-4-4-4-4-4-4-4-4-4-4-4-4-4-|
a -2-2-2-2-2-2-2-2-2-2-2-2-4-4-4-4-4-4-4-4-4-4-4-|
e -------------------------2-2-2-2-2-2-2-2-2-2-2-|
And yes we mean it too yes we're still so in love with you

e -------------------------------------------------|
b -------------------------------------------------|
g -------------------------------------------------|
d -6-6-6-6-6-6-6-6-6-6-6-4-2-2-2-2-2-2-2-2-2-2-2-4-|
a -6-6-6-6-6-6-6-6-6-6-6-x-2-2-2-2-2-2-2-2-2-2-2-x-|
e -4-4-4-4-4-4-4-4-4-4-4-2-0-0-0-0-0-0-0-0-0-0-0-2-|
Hello it's us again youthought you were our friends

e -----------------------------------------------|
b -----------------------------------------------|
g -4-4-4-4-4-4-4-4-4-4-4-4-----------------------|
d -4-4-4-4-4-4-4-4-4-4-4-4-4-4-4-4-4-4-4-4-4-4-4-|
a -2-2-2-2-2-2-2-2-2-2-2-2-4-4-4-4-4-4-4-4-4-4-4-|
e -------------------------2-2-2-2-2-2-2-2-2-2-2-|
Success is an ugly word especially in your tiny world

Chorus:
e -------------------------------------------------|
b -------------------------------------------------|
g -------------------------------------------------|
d -6-6-6-6-6-6-6-6-6-6-6-4-2-2-2-2-2-2-2-2-2-2-2-4-|
a -6-6-6-6-6-6-6-6-6-6-6-x-2-2-2-2-2-2-2-2-2-2-2-x-|
e -4-4-4-4-4-4-4-4-4-4-4-2-0-0-0-0-0-0-0-0-0-0-0-2-|
The masses against the classes

e -----------------------------------------------|
b -----------------------------------------------|
g -4-4-4-4-4-4-4-4-4-4-4-4-----------------------|
d -4-4-4-4-4-4-4-4-4-4-4-4-4-4-4-4-4-4-4-4-4-4-4-|
a -2-2-2-2-2-2-2-2-2-2-2-2-4-4-4-4-4-4-4-4-4-4-4-|
e -------------------------2-2-2-2-2-2-2-2-2-2-2-|
I'm tired of giving a reason when the future is what we believe in

e -----------------------------------------------|
b -----------------------------------------------|
g -----------------------------------------------|
d -6-6-6-6-6-6-6-6-6-6-6-4-2-2-2-2-2-2-2-2-2-2-2-|
a -6-6-6-6-6-6-6-6-6-6-6-x-2-2-2-2-2-2-2-2-2-2-2-|
e -4-4-4-4-4-4-4-4-4-4-4-2-0-0-0-0-0-0-0-0-0-0-0-|
We love the winter it brings us closer together

Break:
e -------------------------------------------------|
b -------------------------------------------------|
g -16-16-16-16-16-14-14-14-14-14-------------------|
d -16-16-16-16-16-14-14-14-14-14-12-12-12-12-12-10-|
a -14-14-14-14-14-12-12-12-12-12-12-12-12-12-12-10-|
e -------------------------------10-10-10-10-10-8--|

Verse 2:
e -------------------------------------------------|
b -------------------------------------------------|
g -------------------------------------------------|
d -6-6-6-6-6-6-6-6-6-6-6-4-2-2-2-2-2-2-2-2-2-2-2-4-|
a -6-6-6-6-6-6-6-6-6-6-6-x-2-2-2-2-2-2-2-2-2-2-2-x-|
e -4-4-4-4-4-4-4-4-4-4-4-2-0-0-0-0-0-0-0-0-0-0-0-2-|
So can you hurt us anymore can you feel like it was before
[ Tab from: http://www.guitartabs.cc/tabs/m/manic_street_preachers/masses_against_the_classes_tab_ver_2.html ]
e -----------------------------------------------|
b -----------------------------------------------|
g -4-4-4-4-4-4-4-4-4-4-4-4-----------------------|
d -4-4-4-4-4-4-4-4-4-4-4-4-4-4-4-4-4-4-4-4-4-4-4-|
a -2-2-2-2-2-2-2-2-2-2-2-2-4-4-4-4-4-4-4-4-4-4-4-|
e -------------------------2-2-2-2-2-2-2-2-2-2-2-|
Or are you lost forever more messed up and dead on alcohol

e -------------------------------------------------|
b -------------------------------------------------|
g -------------------------------------------------|
d -6-6-6-6-6-6-6-6-6-6-6-4-2-2-2-2-2-2-2-2-2-2-2-4-|
a -6-6-6-6-6-6-6-6-6-6-6-x-2-2-2-2-2-2-2-2-2-2-2-x-|
e -4-4-4-4-4-4-4-4-4-4-4-2-0-0-0-0-0-0-0-0-0-0-0-2-|
Hello a fond farewell my dears I hop you hear this nice and clear

e -----------------------------------------------|
b -----------------------------------------------|
g -4-4-4-4-4-4-4-4-4-4-4-4-----------------------|
d -4-4-4-4-4-4-4-4-4-4-4-4-4-4-4-4-4-4-4-4-4-4-4-|
a -2-2-2-2-2-2-2-2-2-2-2-2-4-4-4-4-4-4-4-4-4-4-4-|
e -------------------------2-2-2-2-2-2-2-2-2-2-2-|
Our love is unconditional our hate is yours to feed upon

Chorus:
e -------------------------------------------------|
b -------------------------------------------------|
g -------------------------------------------------|
d -6-6-6-6-6-6-6-6-6-6-6-4-2-2-2-2-2-2-2-2-2-2-2-4-|
a -6-6-6-6-6-6-6-6-6-6-6-x-2-2-2-2-2-2-2-2-2-2-2-x-|
e -4-4-4-4-4-4-4-4-4-4-4-2-0-0-0-0-0-0-0-0-0-0-0-2-|
The masses against the classes

e -----------------------------------------------|
b -----------------------------------------------|
g -4-4-4-4-4-4-4-4-4-4-4-4-----------------------|
d -4-4-4-4-4-4-4-4-4-4-4-4-4-4-4-4-4-4-4-4-4-4-4-|
a -2-2-2-2-2-2-2-2-2-2-2-2-4-4-4-4-4-4-4-4-4-4-4-|
e -------------------------2-2-2-2-2-2-2-2-2-2-2-|
I'm tired of giving a reason when the future is what we believe in

e -----------------------------------------------|
b -----------------------------------------------|
g -----------------------------------------------|
d -6-6-6-6-6-6-6-6-6-6-6-4-2-2-2-2-2-2-2-2-2-2-2-|
a -6-6-6-6-6-6-6-6-6-6-6-x-2-2-2-2-2-2-2-2-2-2-2-|
e -4-4-4-4-4-4-4-4-4-4-4-2-0-0-0-0-0-0-0-0-0-0-0-|
We love the winter it brings us closer together

Break:
e -x-----------------------------------------------------------|
b -x-----------------------------------------------------------|
g -1-----------9-9-9-9-9-9-9-9-9-9-9-9-9-9-9-9-9-9-9-9-9-9-9-9-|
d -2-----------9-9-9-9-9-9-9-9-9-9-9-9-9-9-9-9-9-9-9-9-9-9-9-9-|
a -2-----------6s7-7-7-7-6s7-7-7-7-6s7-7-7-6s7-7-7-7-7-7-7-7-7-|
e -x-----------x-x-x-x-x-x-x-x-x-x-x-x-x-x-x-x-x-x-x-x-x-x-x-x-|
Aah aah aah aah aah aah ARRGGGH

Solo:
e -------------------------------16----------------|
b -----------7---7------------12----12-14-14-14-14-|
g -------6-----6-----------12----------------------|
d ----6----4-------4----12-------------------------|
a -4-----------------s14---------------------------|
e -------------------------------------------------|

Chorus:
e -------------------------------------------------|
b -------------------------------------------------|
g -------------------------------------------------|
d -6-6-6-6-6-6-6-6-6-6-6-4-2-2-2-2-2-2-2-2-2-2-2-4-|
a -6-6-6-6-6-6-6-6-6-6-6-x-2-2-2-2-2-2-2-2-2-2-2-x-|
e -4-4-4-4-4-4-4-4-4-4-4-2-0-0-0-0-0-0-0-0-0-0-0-2-|
The masses against the classes

e -----------------------------------------------|
b -----------------------------------------------|
g -4-4-4-4-4-4-4-4-4-4-4-4-----------------------|
d -4-4-4-4-4-4-4-4-4-4-4-4-4-4-4-4-4-4-4-4-4-4-4-|
a -2-2-2-2-2-2-2-2-2-2-2-2-4-4-4-4-4-4-4-4-4-4-4-|
e -------------------------2-2-2-2-2-2-2-2-2-2-2-|
I'm tired of giving a reason when the future is what we believe in

e -----------------------------------------------|
b -----------------------------------------------|
g -----------------------------------------------|
d -6-6-6-6-6-6-6-6-6-6-6-4-2-2-2-2-2-2-2-2-2-2-2-|
a -6-6-6-6-6-6-6-6-6-6-6-x-2-2-2-2-2-2-2-2-2-2-2-|
e -4-4-4-4-4-4-4-4-4-4-4-2-0-0-0-0-0-0-0-0-0-0-0-|
We love the winter it brings us closer together

A SLAVE BEGINS BY DEMANDING JUSTICE AND ENDS BY WANTING TO WEAR A CROWN
Comments