Manic Street Preachers - Masses Against The Classes Chords & Tabs

 

Masses Against The Classes Chords & Tabs

Manic Street Preachers Chords & Tabs

Version: 2 Type: Bass Tab 0 ratings
1 star 2 stars 3 stars 4 stars 5 stars
comments

Masses Against The Classes Bass Tab

   
Masses Against The Classes: Manic Street Preachers
Tabbed by Paul Fivey
Comments etc. to: p.fivey@dundee.ac.uk

Intro:

Bass enters with 5th "Aah"

G--------------------------------------------------------------------
D--------------------------------------------------------------------
A---7-7-7-7-7-7-7-7-7-7-7-7-7-7-7-7-7-7-7-7-7-7-7-7-7-7-7-7-7-7-7-7--
E--------------------------------------------------------------------

Verse:

G-------------------------------------------------------
D-------------------------------------------------------
A-------------------------------------------------------
E--4-4--2-4-4--2-4-4--2-4-4--2-0-0--0-0-0--0-0-0--0-0-0-

G------------------------------------------------------------
D------------------------------------------------------------
A---2-2--0-2-2--0-2-2--0-2-2--0------------------------------
E-0-----------------------------2-2--0-2-2--0-2-2--0-2-2--2--

Play this through twice 

Chorus:
[ Tab from: http://www.guitartabs.cc/tabs/m/manic_street_preachers/masses_against_the_classes_btab_ver_2.html ]
G-----------------------------------------------------------------
D-----------------------------------------------------------------
A---------------------------------7-7-7-7-7-7-7-7-7-7-7-7-7-7-7-7-
E-4-4-4-4-4-4-4-4-4-4-4-4-4-4-4-4---------------------------------

G-----------------------------------------------------------------
D-----------------------------------------------------------------
A-2-2-2-2-2-2-2-2-2-2-2-2-2-2-2-2---------------------------------
E---------------------------------2-2-2-2-2-2-2-2-2-2-2-2-2-2-2-2-

G-----------------------------------------------------------------
D-----------------------------------------------------------------
A-----------------------------------------------------------------
E-4-4-4-4-4-4-4-4-4-4-4-4-4-4-4-4-0-0-0-0-0-0-0-0-0-0-0-0-0-0-0-0-

Then rest the first time.
The second time just play the intro part then play the verse part
over the solo before going into the chorus.

The third chorus is also followed by a stretch like the intro,
then it cuts and ends.
Comments