Manic Street Preachers - La Tristesse Durera Chords & Tabs

 

La Tristesse Durera Chords & Tabs

Manic Street Preachers Chords & Tabs

Version: 2 Type: Bass Tab 0 ratings
1 star 2 stars 3 stars 4 stars 5 stars
comments

La Tristesse Durera Bass Tab

Manic Street Preachers

From the album "Gold Against the Soul"

Track 3 - La Tristesse Durera

Main Riff

G-|-------------------||
D-|-------------------||
A-|-------------------||
E-|-3-3-3--3-3--3-3-0-||

"Wheeled out once a year, a cenotaph..."

G-|-----------------------------------||
D-|------------------1--1--1-1--1-1-3-||
A-|-3--3--3-3--3-3-5------------------||
E-|-----------------------------------||

Solo
[ Tab from: http://www.guitartabs.cc/tabs/m/manic_street_preachers/la_tristesse_durera_btab_ver_2.html ]
G-|--------------------------------------|
D-|--------------------------------------|
A-|--------------------------------------|
E-|-0--0--0-0-0-0-0-0--3--3--3-3-3-3-3-3-|
				        x2
G-|--------------------------------------|
D-|--------------------------------------|
A-|-5--5--5-5-5-5-5-5--3--3--3-3-3-3-3-3-|
E-|--------------------------------------|
			  x3			     x2
G-|------------------------|--------------------------||
D-|------------------------|--------------------------||
A-|------------5--5--5-5-3-|-3--3-3-3-3-0--3--3-3-3-3-||
E-|-5--5-5-5-5-------------|--------------------------||

"I sold my medal..."

G-|-----------------------||
D-|-----------------------||
A-|------------3--3-3-3-2-||
E-|-3--3-3-5-3------------||

Sturcture:

Main Riff x12
"Wheeled out..." x1
Main Riff x2
"Wheeled out..." x1
Main Riff x8

2 bars: no bass

Main Riff x10
"Wheeled out..." x1
Main Riff x2
"Wheeled out..." x1
Main Riff x8

Solo x1

Main Riff x8
"I sold my medal..." x4
Main Riff x20
Comments