Manic Street Preachers - Kevin Carter Chords & Tabs

 

Kevin Carter Chords & Tabs

Manic Street Preachers Chords & Tabs

Version: 1 Type: Bass Tab 0 ratings
1 star 2 stars 3 stars 4 stars 5 stars
comments

Kevin Carter Bass Tab

Manic Street Preachers
Kevin Carter 



Track 3 - Everything Must Go 

     Intro                                                            
G||------------------|-----------------------|------------------|
D||------------------|-----------------------|------------------|
A||------------------|--------6--7--8\-------|------------------|
E||------------------|--6h-8-----------------|------------------|


                          Verse: Hi time magazine...                                                   
-----------------------|--------------------|-------------------------------|
-----------------------|--------------------|-------------------------------|
--------6--7--8\-------|--8------8----8--8--|--8------8----8--8--8----8--8--|
--6h-8-----------------|--------------------|-------------------------------|


                                                                          
--------------------|-------------------------------|--------------------|
--------------------|-------------------------------|--------------------|
--7------7----7--7--|--7------7----7--7--7----7--7--|--6------6----6--6--|
--------------------|-------------------------------|--------------------|

[ Tab from: http://www.guitartabs.cc/tabs/m/manic_street_preachers/kevin_carter_btab.html ]
                                                     
-------------------------------|--------------------|
-------------------------------|--------------------|
--6------6----6--6--6----6--6--|--5------5----5--5--|
-------------------------------|--------------------|


                                                     
-------------------------------|--------------------|
-------------------------------|--------------------|
--5------5----5--5--5----5--5--|--4------4----4--4--|
-------------------------------|--------------------|


                                Chorus; Kevin Carter...                                              
-------------------------------|------------------------|-------------------||
-------------------------------|------------------------|-------------------||
--4------4----4--4--4----4--4--|--4--4-------------4----|--4--4--4-4--4--4--||
-------------------------------|--------3----3--3-------|-------------------||

Simple song ,fun to play. Trumpet solo same as Verse + Chorus. However, I'm not totally sure
 about the intro part and the part that's played after the trumpet solo(I think something with
 C,C# and G notes. Please listen to the album to get it right.

transcribed by Rients de Boer 

Comments