Manic Street Preachers - Judge Yrself Chords & Tabs

 

Judge Yrself Chords & Tabs

Manic Street Preachers Chords & Tabs

Version: 1 Type: Tab 0 ratings
1 star 2 stars 3 stars 4 stars 5 stars
comments

Judge Yrself Tab

   
tuning low to high - e,a,d,g,b,e
intro
|---------------------------------------------------------------|
|---------------------------------------------------------------|
|---------------------------------6-6-6-6-6-------6-6-6-6-6-----|
|-7-7-7-7-7-------7-7-7-7-7-------6-6-6-6-6-------6-6-6-6-6-----| x3
|-7-7-7-7-7-------7-7-7-7-7-------4-4-4-4-4-------4-4-4-4-4-----|
|-5-5-5-5-5-------5-5-5-5-5-------------------------------------|

verse 1
|---------------------------------------------------------------|
|---------------------------------------------------------------|
|---------------------------------6-6-6-6-6-------6-6-6-6-6-----|
|-7-7-7-7-7-------7-7-7-7-7-------6-6-6-6-6-------6-6-6-6-6-----| x2
|-7-7-7-7-7-------7-7-7-7-7-------4-4-4-4-4-------4-4-4-4-4-----|
|-5-5-5-5-5-------5-5-5-5-5-------------------------------------|
  blessed....     blessed....     dyonosis        against...

|---------------------------------------------------------------|
|---------------------------------------------------------------|
|---------------------------------6-6-6-6-6-------6-6-6-6-6-----|
|-7-7-7-7-7-------7-7-7-7-7-------6-6-6-6-6-------6-6-6-6-6-----|
|-7-7-7-7-7-------7-7-7-7-7-------4-4-4-4-4-------4-4-4-4-4-----|
|-5-5-5-5-5-------5-5-5-5-5-------------------------------------|
  find...         face....        speak...        be your...

|---------------------------------------------------------------|
|---------------------------------------------------------------|
|-----2-----2-----2-----2---2-0-------6-----6-----6-----6---6-4-|
|---0-----0-----0-----0-------------4-----4-----4-----4---------|
|-0-----0-----0-----0-----0-----0-4-----4-----4-----4-----4-----|
|---------------------------------------------------------------|
|
|
|---------------------------------------------------------------|
|---------------------------------------------------------------|
|---------------------------------6-6-6-6-6-------6-6-6-6-6-----|
|-7-7-7-7-7-------7-7-7-7-7-------6-6-6-6-6-------6-6-6-6-6-----|
|-7-7-7-7-7-------7-7-7-7-7-------4-4-4-4-4-------4-4-4-4-4-----|
|-5-5-5-5-5-------5-5-5-5-5-------------------------------------|
  find...         face....        speak...        be your...

|---------------------------------------------------------------|
|-----------------6-6-------------4---------------9-------------|
|-6---------------6---6-----------4---------------9-------------|
|-7---------------6-----6---------4---------------9-------------|
|-7---------------4---------------2---------------7-------------|
|-5-------------------------------------------------------------|
  clean..     and mock...     the brightest....   purest...

chorus x2
|-------------------------------------------------------------|
|-------------------------------------------------------------|
|-6-6-6-6-6-------6-6-6-6-6-------6-6-6-6-6-------6-6-6-6-6---|
|-6-6-6-6-6-------6-6-6-6-6-------6-6-6-6-6-------6-6-6-6-6---|
|-4-4-4-0-4-------4-4-4-0-4-------4-4-4-0-4-------4-4-4-0-4---|
|-------------------------------------------------------------|
|
|
|---------------------------------------------------------------|
|---------------------------------------------------------------|
|-----6-------4----------------------6-------4------------------|
|---------------------2------2-4--------------------2-----2-4---|
|-4-4-----4-4-----0-0----0-0-----4-4-----4-4----0-0---0-0-------|
|---------------------------------------------------------------|
  heel yrself     hurt yrself     judge yrslef

solo 1
|-------------------------------------------------------------|
|-10~~~~~~~~~~~~~~~~~~~~~~~~~~~~~~14~~~(slow bend)~~~~~~~~~~~-|
|-------------------------------------------------------------|
|-------------------------------------------------------------|
|-------------------------------------------------------------|
|-------------------------------------------------------------|

solo 1 backing
|-------------------------------------------------------------|
|-------------------------------------------------------------|
|---------------------------------6-6-6-6-6-------6-6-6-6-6---|
|-7-7-7-7-7-------7-7-7-7-7-------6-6-6-6-6-------6-6-6-6-6---|
|-7-7-7-7-7-------7-7-7-7-7-------4-4-4-4-4-------4-4-4-4-4---|
|-5-5-5-5-5-------5-5-5-5-5-----------------------------------|

verse 2
|---------------------------------------------------------------|
|---------------------------------------------------------------|
|---------------------------------x-x-x-x-x-------x-x-x-x-x-----|
|-x-x-x-x-x-------x-x-x-x-x-------x-x-x-x-x-------x-x-x-x-x-----|
|-x-x-x-x-x-------x-x-x-x-x-------x-x-x-x-x-------x-x-x-x-x-----|
|-x-x-x-x-x-------x-x-x-x-x-------------------------------------|
  blessed....     blessed....     dyonosis        against...

|---------------------------------------------------------------|
|---------------------------------------------------------------|
|---------------------------------6-6-x-x-x-------6-6-x-x-x-----|
|-7-7-x-x-x-------7-7-x-x-x-------6-6-x-x-x-------6-6-x-x-x-----| x2
|-7-7-x-x-x-------7-7-x-x-x-------4-4-x-0-x-------4-4-x-0-x-----|
|-5-5-x-0-x-------5-5-x-0-x-------------------------------------|
  blessed....     blessed....     dyonosis        against...
[ Tab from: http://www.guitartabs.cc/tabs/m/manic_street_preachers/judge_yrself_tab.html ]
|---------------------------------------------------------------|
|---------------------------------------------------------------|
|-----2-----2-----2-----2---2-0-------6-----6-----6-----6---6-4-|
|---0-----0-----0-----0-------------4-----4-----4-----4---------|
|-0-----0-----0-----0-----0-----0-4-----4-----4-----4-----4-----|
|---------------------------------------------------------------|
  find...         face....        speak...        be your...

|---------------------------------------------------------------|
|---------------------------------------------------------------|
|-----2-----2-----2-----2---2-0-------6-----6-----6-----6---6-4-|
|---0-----0-----0-----0-------------4-----4-----4-----4---------|
|-0-----0-----0-----0-----0-----0-4-----4-----4-----4-----4-----|
|---------------------------------------------------------------|
|
|
|---------------------------------------------------------------|
|---------------------------------------------------------------|
|---------------------------------6-6-6-6-6-------6-6-6-6-6-----|
|-7-7-7-7-7-------7-7-7-7-7-------6-6-6-6-6-------6-6-6-6-6-----|
|-7-7-7-7-7-------7-7-7-7-7-------4-4-4-0-4-------4-4-4-0-4-----|
|-5-5-5-0-5-------5-5-5-0-5-------------------------------------|
  find...         face....        speak...        be your...

|---------------------------------------------------------------|
|-----------------6-6-------------4---------------9-------------|
|-6---------------6---6-----------4---------------9-------------|
|-7---------------6-----6---------4---------------9-------------|
|-7---------------4---------------2---------------7-------------|
|-5-------------------------------------------------------------|
  clean..     and mock...     the brightest....   purest...

chorus x4
|-------------------------------------------------------------|
|-------------------------------------------------------------|
|-6-6-6-6-6-------6-6-6-6-6-------6-6-6-6-6-------6-6-6-6-6---|
|-6-6-6-6-6-------6-6-6-6-6-------6-6-6-6-6-------6-6-6-6-6---|
|-4-4-4-0-4-------4-4-4-0-4-------4-4-4-0-4-------4-4-4-0-4---|
|-------------------------------------------------------------|
|
|
|---------------------------------------------------------------|
|---------------------------------------------------------------|
|-----6-------4----------------------6-------4------------------|
|---------------------2------2-4--------------------2-----2-4---|
|-4-4-----4-4-----0-0----0-0-----4-4-----4-4----0-0---0-0-------|
|---------------------------------------------------------------|
  heel yrself     hurt yrself     judge yrslef

solo 2
|------------------------------------------------------------------------|
|------------------------------------------------------------------------|
|------------------------------------------------------------------------|
|-/9---7-7---6-6---6-6-4-2-2/6---6-6-7-6-4---4-4-2-0-2---2-2-4-2---------|
|----------------------------------------------------------------4---4-4-|
|------------------------------------------------------------------------|
 
|------------------------------------|
|-----14-12----14-12----12---12(14)--|
|------------------------------------|
|-/11-------11-------11--------------|
|------------------------------------|
|------------------------------------|

solo 2 backing
|-------------------------------------------------------------|
|-------------------------------------------------------------|
|---------------------------------6-6-6-6-6-------6-6-6-6-6---|
|-7-7-7-7-7-------7-7-7-7-7-------6-6-6-6-6-------6-6-6-6-6---|
|-7-7-7-7-7-------7-7-7-7-7-------4-4-4-4-4-------4-4-4-4-4---|
|-5-5-5-5-5-------5-5-5-5-5-----------------------------------|

|---------------------------------------------------------------|
|-----------------6-6-------------4---------------9-------------|
|-6---------------6---6-----------4---------------9-------------|
|-7---------------6-----6---------4---------------9-------------|
|-7---------------4---------------2---------------7-------------|
|-5-------------------------------------------------------------|
  kiss...     and mock...     the brightest....   purest...

chorus x4
|-------------------------------------------------------------|
|-------------------------------------------------------------|
|-6-6-6-6-6-------6-6-6-6-6-------6-6-6-6-6-------6-6-6-6-6---|
|-6-6-6-6-6-------6-6-6-6-6-------6-6-6-6-6-------6-6-6-6-6---|
|-4-4-4-0-4-------4-4-4-0-4-------4-4-4-0-4-------4-4-4-0-4---|
|-------------------------------------------------------------|
|
|
|---------------------------------------------------------------|
|---------------------------------------------------------------|
|-----6-------4----------------------6-------4------------------|
|---------------------2------2-4--------------------2-----2-4---|
|-4-4-----4-4-----0-0----0-0-----4-4-----4-4----0-0---0-0-------|
|---------------------------------------------------------------|
  heel yrself     hurt yrself     judge yrslef

end on |---|
       |---|
       |-6-|
       |-6-|
       |-4-|
       |---|

lyrics:

blessed be the blade
blessed be the size
dyonosis
against the crucified

blessed be the blade
blessed be the size
dyonosis
against the crucified

find your truth
face your truth
speak your truth
and be your truth

find your truth
face your truth
speak your truth
and be your truth

clean your flesh  (this line changes to "kiss your wounds" after solo 2)
and mock your fears
the brightest sun
is the purest god

heel yrself
hurt yrself
judge yrself
Comments