Manic Street Preachers - Judge Yourself Chords & Tabs

 

Judge Yourself Chords & Tabs

Manic Street Preachers Chords & Tabs

Version: 1 Type: Tab 0 ratings
1 star 2 stars 3 stars 4 stars 5 stars
comments

Judge Yourself Tab

   
Manic Street Preachers - Judge Yourself

Guitar 1 (Richie)

e|----------------------|
B|----------------------|
G|----------------------|
D|-----------4h5p4------|
A|-7-7-7-7-7------------|
E|-5-5-5-5-5------------|(2x)

e|----------------------|
B|----------------------|
G|----------------------|
D|-6-6-6-6-6------------|
A|-4-4-4-4-4-4h5p4------|
E|----------------------|(2x)


Guitar 2 (James) "Find Your Truth" Part

e|----------------------|
B|----------------------|
G|----------------------|
D|-----------3-5-6------|
A|-----4-5-7------------|
E|-5-7------------------|

"Heal your flesh and mock your fears..." (G1)

e|------------------------------------------|
B|------------------------------------------|
G|--9-9-9-9-9-7-7-7-7-7---------------------|
D|--9-9-9-9-9-7-7-7-7-7-7-7-7-7-7-9-9-9-9-9-|
A|--7-7-7-7-7-5-5-5-5-5-7-7-7-7-7-9-9-9-9-9-|
E|----------------------5-5-5-5-5-7-7-7-7-7-|

Chorus

G1 plays an A chord over and over

G2

e|-----------------------------------------------|
B|------4-4------2-2-----0-0---------------------|
G|-----------------------------------------------|
D|--2-4------0-2-----------------2-2-----0-2-----|
A|-------------------3-5-------------------------|
E|---------------------------3-5-----0-3---------|

Second Verse

G1

e|----------------------|
B|----------------------|
G|----------------------|
D|----------------------|
A|-7-7--7-7-------------|
E|-5-5--5-5-------------|
[ Tab from: http://www.guitartabs.cc/tabs/m/manic_street_preachers/judge_yourself_tab.html ]
e|----------------------|
B|----------------------|
G|----------------------|
D|-6-6--6-6-------------|
A|-4-4--4-4-------------|
E|----------------------|

G2

e|----------------------|
B|----------------------|
G|----------------------|
D|-----------3-5-6------|
A|-----4-5-7------------|
E|-5-7------------------|
 
And

Heal Your Truth...

G2
e|--------------------------------------|
B|--------------------------------------|
G|--------------------------------------|
D|--------------------------------------|
A|-0-0-2-0-0-2-0-0-2-0-0-2-0-0-2-0------|
E|--------------------------------------|

e|--------------------------------------|
B|--------------------------------------|
G|--------------------------------------|
D|--------------------------------------|
A|-0-0-4-0-0-4-0-0-4-0-0-4-0-0-4-0------|
E|--------------------------------------|

2nd Chorus

G1


e|----------------------|
B|--12---------9--------|
G|----------------------|
D|----------------------|
A|----------------------|
E|----------------------|

G2 Plays same as in chorus 1

Solo

G1 plays verse chords

G2

E|-----------------------------------------|
B|-----------------------------------------|
G|-4-2-2-----------------------------------|
D|-------5-5-3-3-1-3-3h5-5-1h3-------------|
A|-----------------------------4-3h4-4-3-1-|
E|-----------------------------------------|


e|----11-----11-----11-----11---------|
B|--8---11-8---11-8---11-8---11-11s13-|
G|------------------------------------|
D|------------------------------------|
A|------------------------------------|
E|------------------------------------|

Chorus (2) is then played 2x
Comments