Manic Street Preachers - Interiors Chords & Tabs

 

Interiors Chords & Tabs

Manic Street Preachers Chords & Tabs

Version: 1 Type: Bass Tab 0 ratings
1 star 2 stars 3 stars 4 stars 5 stars
comments

Interiors Bass Tab

Manic Street Preachers
Interiors (song for Willem de Kooning)
Tabbed by Weasel-boy
Verse (X4)
G----------------|----------------|----------------|----------------|
D4-4-0-2-4---4---|4-4-0-2-4---4---|----------------|----------------|
A----------------|----------------|2-2---0-2---2---|2-2---0-2---2---|
E----------------|----------------|----4-----------|----4-----------|
 
Bridge
G----------------|----------------|----------------|----------------|
D----------------|0000000000000000|2222222222222222|2/4-------------|
A4444444444444444|----------------|----------------|---5/7-4-4/9\0--|
E----------------|----------------|----------------|----------------|
 
Chorus (X2)
G----------------|----------------|----------------|----------------|
D----------------|----------------|----------------|----------------|
A5---5---55555555|----------------|5---5---55555555|----------------|
E----------------|5---5---55555555|----------------|5---5---55555555|
 
Solo
G----------------|----------------|----------------|----------------|
D0000000000000000|----------------|----------------|----------------|
A----------------|4444444444444444|0000000000000000|----------------|
E----------------|----------------|----------------|0000000000000000|
 
This is how I play it.  It may not be completely accurate.
Listen to the album to get it right.
If you have any questions or suggestions e-mail me @
weasel-boy@anonymous.to 


[ Tab from: http://www.guitartabs.cc/tabs/m/manic_street_preachers/interiors_btab.html ]
Comments