Manic Street Preachers - Faster Chords & Tabs

 

Faster Chords & Tabs

Manic Street Preachers Chords & Tabs

Version: 3 Type: Tab 0 ratings
1 star 2 stars 3 stars 4 stars 5 stars
comments

Faster Tab

   
tuning low to high - e, a, d, g, b, e

intro
guitar 1 - use all upstrokes
|-16------16------16------16-----------|
|--------------------------------------|
|----14------14------14------14-16-----|
|----------------------------------14--| x1
|--------------------------------------|
|--------------------------------------|

guitar 2
|---|
|---|
|-2-|
|-2-| played repeatedly over guitar 1
|-0-|
|---|

verse - 1st part - x5
guitar 1
|---------------------------------------------------------------|
|---------------------------------------------------------------|
|---------------------------------------------------------------|
|-6-------------6-----------------6-------------6---------------|
|---------------------------------------------------------------|
|---5-x-5-x-x-5---5-5-x-5-5-x-x-5---5-x-5-x-x-5---5-5-5-5-6-7-0-|

guitar 2
|---|
|---|
|-2-|
|-2-|  played repeatedly palm muted
|-0-|
|---|

verse - 2nd part 
        guitar 1
|--------------------------------------------------|
|--------------------------------------------------|
|--------------------------------------------------|
|-/12----------------------------------------------|
|--------------------------/11-\9-\7-/11-\9-\7-----| x3
|--------------------------------------------------|
|
|       guitar 2                                    
|---------------------------------------------------|
|---------------------------------------------------|
|-7-7-7-7-7-7-7-7-7-7-7-7-7-13--11-9--7---6--4--7---|
|-7-7-7-7-7-7-7-7-7-7-7-7-7-13--11-9--7---6--4--7---|
|-5-5-5-5-5-5-5-5-5-5-5-5-5-11--9--7--5---4--2--5---| x3
|---------------------------------------------------|

both guitars
|---------------------------------------------------|
|---------------------------------------------------|
|-7-7-7-7-7-7-7-7-7-7-7-7-7-9-9-9-9-9-9-9-9-9-9-9-9-|
|-7-7-7-7-7-7-7-7-7-7-7-7-7-9-9-9-9-9-9-9-9-9-9-9-9-|
|-5-5-5-5-5-5-5-5-5-5-5-5-5-7-7-7-7-7-7-7-7-7-7-7-7-| x1 
|---------------------------------------------------|

chorus - both guitars - all x2
|-------------------------------------------------|
|-------------------------------------------------|
|-11--9--9-11--9--9-11--9-11--9--9-11--9--9-11--9-|
|--9--9--9--9--9--9--9--9--9--9--9--9--9--9--9--9-| x2
|-------------------------------------------------|
|-------------------------------------------------|

|---------------------------------------|
|---------------------------------------|
|-13-13-13-11-11-11-9-9-9-7-7-7-6-6-4-4-|
|---------------------------------------| x1
|-11-11-11-9--9--9--7-7-7-5-5-5-4-4-2-2-|
|---------------------------------------|
[ Tab from: http://www.guitartabs.cc/tabs/m/manic_street_preachers/faster_tab_ver_3.html ]
|-----------------------------------------------------------------|
|-----------------------------------------------------------------|
|-4-4-4-4-4-4-4-4-4-4-4-4-4-4-4-4---------------------------------|
|-4-4-4-4-4-4-4-4-4-4-4-4-4-4-4-4-2-2-2-2-2-2-2-2-2-2-2-2-2-2-2-2-|
|-2-2-2-2-2-2-2-2-2-2-2-2-2-2-2-2-2-2-2-2-2-2-2-2-2-2-2-2-2-2-2-2-| x1
|---------------------------------0-0-0-0-0-0-0-0-0-0-0-0-0-0-0-0-|

break x1
guitar 1
|-16-16-12-16-16-16----------16---------------16---------16-------------|
|-16-16-12-16-16--------------------------------------------------------|
|-15-15-12-15-15-13-14-------13--14-----------13--14-----13--14--16-----|
|-12-12-12-12-12-----------------------------------------------------14-|
|-----------------------------------------------------------------------|
|-----------------------------------------------------------------------|

guitar 2
|---------------------------------------------------------------------------|
|---------------------------------------------------------------------------|
|-2-2---2-2-----------------------------------------------------------------|
|-2-2---2-2---6-------------6-----------------6-------------6---------------|
|-0-0-0-0-0-----------------------------------------------------------------|
|---------------5-x-5-x-x-5---5-5-x-5-5-x-x-5---5-x-5-x-x-5---5-5-5-5-6-7-0-|

solo
|--------------------------------------------------|
|--------------------------------------------------|
|--------------------------------------------------|
|----------------7-8-------5-6-------7-8-------5-6-|
|-/19~~~\--7h8h9-----5h6h7-----7h8h9-----5h6h7-----|
|--------------------------------------------------|

|--------------------------------------------------------------|
|--------9h11-----7h9------9h11-----7h9------9h11-----7h9------|
|-/-9h11------7h9-----9h11------7h9-----9h11------7h9-----9~~~-|
|--------------------------------------------------------------|
|--------------------------------------------------------------|
|--------------------------------------------------------------|

|-------------------/12----------|
|-----14-12-------------15-14-12-|
|-----------14-11-13-------------|
|-/14----------------------------|
|--------------------------------|
|--------------------------------|

|-------------------------------------------------------|
|----------------------------------12-13-14-14(16)-(14)-|
|-14-13-12----------------12-13-14----------------------|
|----------14-13-12-13-14-------------------------------|
|-------------------------------------------------------|
|-------------------------------------------------------|

backing for solo
|---|
|---|
|-2-|
|-2-|  repeatedly
|-0-|
|---|

outro
|---------------------------------------------------------------|
|---------------------------------------------------------------|
|---------------------------------------------------------------|
|-6-------------6-----------------6-------------6---------------|
|---------------------------------------------------------------|
|---5-x-5-x-x-5---5-5-x-5-5-x-x-5---5-x-5-x-x-5---5-5-5-5-6-7-0-|

play order:
intro
verse
chorus
break
verse
chorus
solo
outro

x = mute
h = hammer on
notes in() = bend previously played note to this point
Comments