Manic Street Preachers - Drug Drug Druggy Chords & Tabs

 

Drug Drug Druggy Chords & Tabs

Manic Street Preachers Chords & Tabs

Version: 3 Type: Tab 0 ratings
1 star 2 stars 3 stars 4 stars 5 stars
comments

Drug Drug Druggy Tab

   
Manic Street Preachers - Drug Drug Druggy
Tabbed by Phil Payton (philpayton@hotmail.com)

Intro:
Palm muted
e -----------------------------------
b -----------------------------------
g -4-4-4-4-4-4-4-4-7-7-7-7-7-7-7-7-7-
d -4-4-4-4-4-4-4-4-7-7-7-7-7-7-7-7-7-
a -2-2-2-2-2-2-2-2-5-5-5-5-5-5-5-5-5-
e -----------------------------------

e -----------------------
b -----------------------
g -----------------------
d -5-5-5-5-5-5-4-4-4-4-4-
a -5-5-5-5-5-5-4-4-4-4-4-
e -3-3-3-3-3-3-2-2-2-2-2-

e -----------------------------------
b -----------------------------------
g -4-4-4-4-4-4-4-4-2-2-2-2-2-2-2-2-2-
d -4-4-4-4-4-4-4-4-2-2-2-2-2-2-2-2-2-
a -2-2-2-2-2-2-2-2-0-0-0-0-0-0-0-0-0-
e -----------------------------------

e ---------
b ---------
g ---------
d -5---5-4-
a -5-------
e -3-3-----

e ---------------------------------------------
b -0-0-3-3-3-6-6-5-3-5-3-5-12-12-10-10-8-7-5-7-
g ---------------------------------------------
d ---------------------------------------------
a ---------------------------------------------
e ---------------------------------------------

Verse 1:
e -----------------------------------
b -----------------------------------
g -4-4-4-4-4-4-4-4-7-7-7-7-7-7-7-7-7-
d -4-4-4-4-4-4-4-4-7-7-7-7-7-7-7-7-7-
a -2-2-2-2-2-2-2-2-5-5-5-5-5-5-5-5-5-
e -----------------------------------
So much fun to be

e -----------------------
b -----------------------
g -----------------------
d -5-5-5-5-5-5-4-4-4-4-4-
a -5-5-5-5-5-5-4-4-4-4-4-
e -3-3-3-3-3-3-2-2-2-2-2-
Had in my head

e -----------------------------------
b -----------------------------------
g -4-4-4-4-4-4-4-4-2-2-2-2-2-2-2-2-2-
d -4-4-4-4-4-4-4-4-2-2-2-2-2-2-2-2-2-
a -2-2-2-2-2-2-2-2-0-0-0-0-0-0-0-0-0-
e -----------------------------------
No more

e -----------------------
b -----------------------
g -----------------------
d -5-5-5-5-5-5-4-4-4-4-4-
a -5-5-5-5-5-5-4-4-4-4-4-
e -3-3-3-3-3-3-2-2-2-2-2-
Sunshine

e -----------------------------------
b -----------------------------------
g -4-4-4-4-4-4-4-4-7-7-7-7-7-7-7-7-7-
d -4-4-4-4-4-4-4-4-7-7-7-7-7-7-7-7-7-
a -2-2-2-2-2-2-2-2-5-5-5-5-5-5-5-5-5-
e -----------------------------------
So much fun just

e -----------------------
b -----------------------
g -----------------------
d -5-5-5-5-5-5-4-4-4-4-4-
a -5-5-5-5-5-5-4-4-4-4-4-
e -3-3-3-3-3-3-2-2-2-2-2-
Lying in my bed

e -----------------------------------
b -----------------------------------
g -4-4-4-4-4-4-4-4-2-2-2-2-2-2-2-2-2-
d -4-4-4-4-4-4-4-4-2-2-2-2-2-2-2-2-2-
a -2-2-2-2-2-2-2-2-0-0-0-0-0-0-0-0-0-
e -----------------------------------
No more

e -----------------------
b -----------------------
g -----------------------
d -5-5-5-5-5-5-4-4-4-4-4-
a -5-5-5-5-5-5-4-4-4-4-4-
e -3-3-3-3-3-3-2-2-2-2-2-
Sunshine

Prechorus:

e ---------------------------------
b ---------------------------------
g ---------------------------------
d -5-5-5-5-5-5-5-5-5-5-5-5-5-5-5-5-
a -5-5-5-5-5-5-5-5-5-5-5-5-5-5-5-5-
e -3-3-3-0-3-3-3-0-3-3-3-0-3-3-3-0-
I can't face the sunlight

e -------------------------------
b -------------------------------
g -2-2-0-2-2-0-2-2-2-0-2-2-2-2-2-
d -2-2-0-2-2-0-2-2-2-0-2-2-2-2-2-
a -0-0-0-0-0-0-0-0-0-0-0-0-0-0-0-
e -------------------------------
And the dirt outside

e ---------------------------------
b ---------------------------------
g ---------------------------------
d -5-5-5-5-5-5-5-5-5-5-5-5-5-5-5-5-
a -5-5-5-5-5-5-5-5-5-5-5-5-5-5-5-5-
e -3-3-3-0-3-3-3-0-3-3-3-0-3-3-3-0-
Wanna stay in 666

e ---------------------------
b ---------------------------
g ---------------------------
d -4-4-4-4-4-4-4-4-4-4-4-4-6-
a -4-4-4-4-4-4-4-4-4-4-4-4-x-
e -2-2-2-2-2-2-2-2-2-2-2-2-4-
Where this darkness don't die

Chorus:
e ---------------------------
b ---------------------------
g ---------------------------
d -9-9-9-9-6-4-6-6-6-4s6-6-6-
a -9-9-9-9-6-4-6-6-6-4s6-6-6-
e -7-7-7-7-4-2-4-4-4-2s4-4-4-
Drug Drug Druggy

e ---------------------------
b ---------------------------
g -9-9-9-9-8-6-6-6-6-6-6-6-6-
d -9-9-9-9-8-6-6-6-6-6-6-6-6-
a -7-7-7-7-6-4-4-4-4-4-4-4-4-
e ---------------------------
Got a feeling sweet like honey

e ---------------------------
b ---------------------------
g ---------------------------
d -9-9-9-9-6-4-6-6-6-4s6-6-6-
a -9-9-9-9-6-4-6-6-6-4s6-6-6-
e -7-7-7-7-4-2-4-4-4-2s4-4-4-
Drug Drug Druggy

e ---------------------------
b ---------------------------
g -9-9-9-9-8-6-6-6-6-6-6-6-6-
d -9-9-9-9-8-6-6-6-6-6-6-6-6-
a -7-7-7-7-6-4-4-4-4-4-4-4-4-
e ---------------------------
I need sensation like my baby

e -3-3-3-3-2-0-0-0-0-0-0-0---
b -3-3-3-3-2-0-0-0-0-0-0-0---
g -4-4-4-4-3-0-0-0-0-0-0-0---
d -5-5-5-5-4-2-2-2-2-2-2-2-4-
a -5-5-5-5-4-2-2-2-2-2-2-2-x-
e -3-3-3-3-2-0-0-0-0-0-0-0-2-
Snort your lines you're so aware

e -3-3-3-3-2-0-0-0-0-0-0-0---
b -3-3-3-3-2-0-0-0-0-0-0-0---
g -4-4-4-4-3-0-0-0-0-0-0-0---
d -5-5-5-5-4-2-2-2-2-2-2-2-4-
a -5-5-5-5-4-2-2-2-2-2-2-2-x-
e -3-3-3-3-2-0-0-0-0-0-0-0-2-
I'm not barbaric I just care

e -3-3-3-3-2-0-0-0-0-0-0-0---
b -3-3-3-3-2-0-0-0-0-0-0-0---
g -4-4-4-4-3-0-0-0-0-0-0-0---
d -5-5-5-5-4-2-2-2-2-2-2-2-4-
a -5-5-5-5-4-2-2-2-2-2-2-2-x-
e -3-3-3-3-2-0-0-0-0-0-0-0-2-
Drug Drug Drug

Break:
e -------------10----9---7-6-------------------------------
b -12-10-12-12----10---8-----7-5-7-5-7-12-12-10-10-8-7-5-7-
g ---------------------------------------------------------
d ---------------------------------------------------------
a ---------------------------------------------------------
e ---------------------------------------------------------

Verse 2:
e -----------------------------------
b -----------------------------------
g -4-4-4-4-4-4-4-4-7-7-7-7-7-7-7-7-7-
d -4-4-4-4-4-4-4-4-7-7-7-7-7-7-7-7-7-
a -2-2-2-2-2-2-2-2-5-5-5-5-5-5-5-5-5-
e -----------------------------------
I need a reflection to

e -----------------------
b -----------------------
g -----------------------
d -5-5-5-5-5-5-4-4-4-4-4-
a -5-5-5-5-5-5-4-4-4-4-4-
e -3-3-3-3-3-3-2-2-2-2-2-
Prove I exist

e -----------------------------------
b -----------------------------------
g -4-4-4-4-4-4-4-4-2-2-2-2-2-2-2-2-2-
d -4-4-4-4-4-4-4-4-2-2-2-2-2-2-2-2-2-
a -2-2-2-2-2-2-2-2-0-0-0-0-0-0-0-0-0-
e -----------------------------------
No more

e -----------------------
b -----------------------
g -----------------------
d -5-5-5-5-5-5-4-4-4-4-4-
a -5-5-5-5-5-5-4-4-4-4-4-
e -3-3-3-3-3-3-2-2-2-2-2-
Sunshine
[ Tab from: http://www.guitartabs.cc/tabs/m/manic_street_preachers/drug_drug_druggy_tab_ver_3.html ]
e -----------------------------------
b -----------------------------------
g -4-4-4-4-4-4-4-4-7-7-7-7-7-7-7-7-7-
d -4-4-4-4-4-4-4-4-7-7-7-7-7-7-7-7-7-
a -2-2-2-2-2-2-2-2-5-5-5-5-5-5-5-5-5-
e -----------------------------------
I am a victim of

e -----------------------
b -----------------------
g -----------------------
d -5-5-5-5-5-5-4-4-4-4-4-
a -5-5-5-5-5-5-4-4-4-4-4-
e -3-3-3-3-3-3-2-2-2-2-2-
Designer blitz

e -----------------------------------
b -----------------------------------
g -4-4-4-4-4-4-4-4-2-2-2-2-2-2-2-2-2-
d -4-4-4-4-4-4-4-4-2-2-2-2-2-2-2-2-2-
a -2-2-2-2-2-2-2-2-0-0-0-0-0-0-0-0-0-
e -----------------------------------
No more

e -----------------------
b -----------------------
g -----------------------
d -5-5-5-5-5-5-4-4-4-4-4-
a -5-5-5-5-5-5-4-4-4-4-4-
e -3-3-3-3-3-3-2-2-2-2-2-
Sunshine

Prechorus:

e ---------------------------------
b ---------------------------------
g ---------------------------------
d -5-5-5-5-5-5-5-5-5-5-5-5-5-5-5-5-
a -5-5-5-5-5-5-5-5-5-5-5-5-5-5-5-5-
e -3-3-3-0-3-3-3-0-3-3-3-0-3-3-3-0-
Dance like a robot when you're

e -------------------------------
b -------------------------------
g -2-2-0-2-2-0-2-2-2-0-2-2-2-2-2-
d -2-2-0-2-2-0-2-2-2-0-2-2-2-2-2-
a -0-0-0-0-0-0-0-0-0-0-0-0-0-0-0-
e -------------------------------
Chained at the knee

e ---------------------------------
b ---------------------------------
g ---------------------------------
d -5-5-5-5-5-5-5-5-5-5-5-5-5-5-5-5-
a -5-5-5-5-5-5-5-5-5-5-5-5-5-5-5-5-
e -3-3-3-0-3-3-3-0-3-3-3-0-3-3-3-0-
The CIA say you're all

e ---------------------------
b ---------------------------
g ---------------------------
d -4-4-4-4-4-4-4-4-4-4-4-4-6-
a -4-4-4-4-4-4-4-4-4-4-4-4-x-
e -2-2-2-2-2-2-2-2-2-2-2-2-4-
They'll ever need

Chorus:
e ---------------------------
b ---------------------------
g ---------------------------
d -9-9-9-9-6-4-6-6-6-4s6-6-6-
a -9-9-9-9-6-4-6-6-6-4s6-6-6-
e -7-7-7-7-4-2-4-4-4-2s4-4-4-
Drug Drug Druggy

e ---------------------------
b ---------------------------
g -9-9-9-9-8-6-6-6-6-6-6-6-6-
d -9-9-9-9-8-6-6-6-6-6-6-6-6-
a -7-7-7-7-6-4-4-4-4-4-4-4-4-
e ---------------------------
Got a feeling sweet like honey

e ---------------------------
b ---------------------------
g ---------------------------
d -9-9-9-9-6-4-6-6-6-4s6-6-6-
a -9-9-9-9-6-4-6-6-6-4s6-6-6-
e -7-7-7-7-4-2-4-4-4-2s4-4-4-
Drug Drug Druggy

e ---------------------------
b ---------------------------
g -9-9-9-9-8-6-6-6-6-6-6-6-6-
d -9-9-9-9-8-6-6-6-6-6-6-6-6-
a -7-7-7-7-6-4-4-4-4-4-4-4-4-
e ---------------------------
I need sensation like my baby

e -3-3-3-3-2-0-0-0-0-0-0-0---
b -3-3-3-3-2-0-0-0-0-0-0-0---
g -4-4-4-4-3-0-0-0-0-0-0-0---
d -5-5-5-5-4-2-2-2-2-2-2-2-4-
a -5-5-5-5-4-2-2-2-2-2-2-2-x-
e -3-3-3-3-2-0-0-0-0-0-0-0-2-
Snort your lines you're so aware

e -3-3-3-3-2-0-0-0-0-0-0-0---
b -3-3-3-3-2-0-0-0-0-0-0-0---
g -4-4-4-4-3-0-0-0-0-0-0-0---
d -5-5-5-5-4-2-2-2-2-2-2-2-4-
a -5-5-5-5-4-2-2-2-2-2-2-2-x-
e -3-3-3-3-2-0-0-0-0-0-0-0-2-
I'm not barbaric I just care

e -3-3-3-3-2-0-0-0-0-0-0-0---
b -3-3-3-3-2-0-0-0-0-0-0-0---
g -4-4-4-4-3-0-0-0-0-0-0-0---
d -5-5-5-5-4-2-2-2-2-2-2-2-4-
a -5-5-5-5-4-2-2-2-2-2-2-2-x-
e -3-3-3-3-2-0-0-0-0-0-0-0-2-
Drug Drug Drug

Solo:
e -------------------------------------------------------------
b -7----7----7----------------------------12-------------------
g -9b11-9b11-9b11r9p7-----7h9s14----11-14----14-11-12-11-12-11-
d --------------------9-7--------14----------------------------
a -------------------------------------------------------------
e -------------------------------------------------------------

e -------------------------------------------------------
b -------------------------------------------------------
g ----11-------------------------------------------------
d -14----14-12----12-14-12-------------------------12----
a -------------14----------14-12-14-12----------------14-
e -------------------------------------14-12-10-12-------

e ---------------------------------------------------------
b -7----7----7-------------------5---7----7----8-----8-----
g -9b11-9b11-9b11r9p7-----7h9s14-7b9-9b11-9b11-10b12-10b12-
d --------------------9-7----------------------------------
a ---------------------------------------------------------
e ---------------------------------------------------------

e -------------------------------------10-7----7-----
b -10----10----12----12----13----13---------10-10b12-
g -12b14-12b14-14b16-14b16-15b17-15b17---------------
d ---------------------------------------------------
a ---------------------------------------------------
e ---------------------------------------------------

e ----------------------------------------------------------
b -------------------------------7-7-7h10p7---7-------------
g -9b11-9b11-9b11r9p7-----7h9s14------------9---9-7-9-7b9---
d --------------------9-7---------------------------------9-
a ----------------------------------------------------------
e ----------------------------------------------------------

e -------------------------------------19-17---17-19-
b ----------------7----10-------17b19-------19-------
g ----------------9b11----b11r9----------------------
d -7b9r7---------------------------------------------
a -------7-7s9-7-9-----------------------------------
e ---------------------------------------------------

e -17----17-19-17----17-17b19-
b ----19----------19----------
g ----------------------------
d ----------------------------
a ----------------------------
e ----------------------------

Chorus:
e ---------------------------
b ---------------------------
g ---------------------------
d -9-9-9-9-6-4-6-6-6-4s6-6-6-
a -9-9-9-9-6-4-6-6-6-4s6-6-6-
e -7-7-7-7-4-2-4-4-4-2s4-4-4-
Drug Drug Druggy

e ---------------------------
b ---------------------------
g -9-9-9-9-8-6-6-6-6-6-6-6-6-
d -9-9-9-9-8-6-6-6-6-6-6-6-6-
a -7-7-7-7-6-4-4-4-4-4-4-4-4-
e ---------------------------
Got a feeling sweet like honey

e ---------------------------
b ---------------------------
g ---------------------------
d -9-9-9-9-6-4-6-6-6-4s6-6-6-
a -9-9-9-9-6-4-6-6-6-4s6-6-6-
e -7-7-7-7-4-2-4-4-4-2s4-4-4-
Drug Drug Druggy

e ---------------------------
b ---------------------------
g -9-9-9-9-8-6-6-6-6-6-6-6-6-
d -9-9-9-9-8-6-6-6-6-6-6-6-6-
a -7-7-7-7-6-4-4-4-4-4-4-4-4-
e ---------------------------
I need sensation like my baby

Ending:
e -----0-
b -----0-
g -----1-
d -4-6-2-
a -4-6-2-
e -2-4-0-
Drug Drug Druggy

e -----0-
b -----0-
g -----1-
d -4-6-2-
a -4-6-2-
e -2-4-0-
Drug Drug Druggy

e -----0-
b -----0-
g -----1-
d -4-6-2-
a -4-6-2-
e -2-4-0-
Drug Drug Druggy

e -----0-
b -----0-
g -----1-
d -4-6-2-
a -4-6-2-
e -2-4-0-
a-b-C-d-e
Comments