Manic Street Preachers - Die In The Summertime Chords & Tabs

 

Die In The Summertime Chords & Tabs

Manic Street Preachers Chords & Tabs

Version: 1 Type: Bass Tab 0 ratings
1 star 2 stars 3 stars 4 stars 5 stars
comments

Die In The Summertime Bass Tab

Title: Die In The Summertime
Artist: Manic Street Preachers
Album: The Holy Bible
Tabbed: Bugman (bugman184@hotmail.com)


Intro:

(After 9 seconds, play...)(Sticatto)
G||--------------------------------|--------------------------------|
D||--------------------------------|--------------------------------|
A||------4------------4---4--------|-------4------------4-----------|
E||--------------------------------|--------------------------------|


G|--------------------------------|--------------------------------|
D|--------------------------------|--------------------------------|
A|------4------------4---4--------|-------4---4-4---4-4----4-4-4-4-|
E|--------------------------------|--------------------------------|


Part 2 of Intro/Bridge
G|--------------------------------|--------------------------------|
D|--------------------------------|-----3-------3----3-----3-------|
A|4----5----4---5-4--5-4---5------|4--------4-----4----4-----------|
E|--------------------------------|--------------------------------|


G|--------------------------------|--------------------------------|
D|--------------------------------|--------------------------------|
A|4----5----4---5-4--5-4---5------|4--------------------------0-2--|
E|--------------------------------|-------------------------4------|



Verse:

G|--------------------------------|--------------------------------|
D|--------------------------------|-----3-------3----3-------4-3---|
A|4----5----4---5-4--5-4--5-5-5---|4--------4-----4----4---------3-|
E|--------------------------------|--------------------------------|


G|--------------------------------|--------------------------------|
D|--------------------------------|-----3-------3----3-------------|
A|4----5----4---5-4--5-4--5-5-5---|4--------4-----4----4-------0-2-|
E|--------------------------------|--------------------------4-----|



Chorus:
[ Tab from: http://www.guitartabs.cc/tabs/m/manic_street_preachers/die_in_the_summertime_btab.html ]
G|--------------------------------|--------------------------------|
D|-----7--------------------------|----7---------------------4-----|
A|----------------4--4----0-4-4---|---------------4----4---2---2---|
E|5-------0--5--------------------|5--------0--5-------------------|


G|--------------------------------|--------------------------------|
D|-----7--------------------------|-----7--------------------------|
A|----------------4--4----0-4-4---|---------------4----------------|
E|5-------0--5--------------------|5--------0--5-------------------|



Solo:

G|----------------------------------------------|
D|----------------------------------------------|
A|-----------------------4--5--4--5-4--5-4--5---|
E|4--5--4--5-4--5-4--5--------------------------|


G|----------------------------------------------|
D|----------------------------------------------|
A|-----------------------3--5--3--5-3--5-3--5---|
E|2--3--2--3-2--3-2--3--------------------------|


G|----------------------------------------------|
D|----------------------------------------------|
A|-----------------------4--5--4--5-4--5-4--5---|
E|4--5--4--5-4--5-4--5--------------------------|


G|----------------------------------------------|
D|----------------------------------------------|
A|-----------------------3--5--3--5-3--5-3--5---|
E|2--3--2--3-2--3-2--3--------------------------|


G|-----------------------|
D|-----------------------|
A|3--5--3--5-3--5-3--5---|
E|-----------------------|


Pre Chorus:

G|----------------------------------------|
D|--------------------------3--3----------|
A|4--5--5---5---2--2-----4---------4--4---|
E|----------------------------------------|


G|----------------------------------------|
D|----------------------------------------|
A|4--5--5---5------2-----4----------------|
E|----------------------------------------|


  That's it. It is hard to hear the bass from the Manic's songs, but
this is pretty much as it sounds.

Comments