Manic Street Preachers - Design For Life Chords & Tabs

 

Design For Life Chords & Tabs

Manic Street Preachers Chords & Tabs

Version: 1 Type: Tab 0 ratings
1 star 2 stars 3 stars 4 stars 5 stars
comments

Design For Life Tab

   
Song: A design for life
Band: Manic St Preachers
By: Dan

ok this song is easy when u practice it dont get 
scared by the picking and weird chords.

Intro:(sometimes used as a fill)

     		       C5maj7

e-------------------------------------------------
b-------0-----------0-----------0-----------0-----
g-----5---5-------5---5-------5---5-------5---5---
d---5-------5---5-------5---5-------5---5-------5-
a-3-----------3-----------3-----------3-----------
E-------------------------------------------------


Verse:   
                       C5maj7
e-------------------------------------------------
b-------0-----------0-----------0-----------0-----
g-----5---5-------5---5-------5---5-------5---5---
d---5-------5---5-------5---5-------5---5-------5-
a-3-----------3-----------3-----------3-----------
E-------------------------------------------------

                       Dm7/13

e-------------------------------------------------
b-------0-----------0-----------0-----------0-----
g-----5---5-------5---5-------5---5-------5---5---
d---3-------3---3-------3---3-------3---3-------3-
a-5-----------5-----------5-----------5-----------
E-------------------------------------------------

                         G7

e-------------------------------------------------
b-------------------------------------------------
g-------4-----------4-----------4-----------4-----
d-----3---3-------3---3-------3---3-------3---3---
a---5-------5---5-------5---5-------5---5-------5-
E-3-----------3-----------3-----------3-----------

       Ebmaj7(no5th)               Dm7b5
[ Tab from: http://www.guitartabs.cc/tabs/m/manic_street_preachers/design_for_life_tab.html ]
e-------3-----------3-----------------------------
b-----3---3-------3---3---------6-----------6-----
g-----------------------------5---5-------5---5---
d---5-------5---5-------5---6-------6---6-------6-
a-6-----------6-----------5-----------5-----------
E-------------------------------------------------

    		       C5maj7

e---------------------------------------------------
b-------0-----------0-----------0-------0-----------
g-----5---5-------5---5-------5---5-----5-----------
d---5-------5---5-------5---5-------5---5-----------
a-3-----------3-----------3-------------3-----------
E---------------------------------------------------

Bridge:

          Dm       G

e------1-1-1-1--3-3-3-3---
b------3-3-3-3--0-0-0-0---
g------2-2-2-2--0-0-0-0--- x2
d------0-0-0-0--0-0-0-0---
a---------------2-2-2-2---
E-1-0-----------3-3-3-3---

         Em     Am  A7sus2   F  Fsus2  F  Fsus2

e------0-0-0-0--0-0--0-0---|-1-1--1-1--1-1--1-1-|
b------0-0-0-0--1-1--0-0---|-1-1--1-1--1-1--1-1-|
g------0-0-0-0--2-2--0-0---|-2-2--0-0--2-2--0-0-|
d-0-1--2-2-2-2--2-2--2-2---|-3-3--3-3--3-3--3-3-|
a------2-2-2-2--0-0--0-0---|-3-3--3-3--3-3--3-3-|
E------0-0-0-0-------------|--------------------|

                             F  Fmajb5  F  Fmaj7          
          
              Second time..|-1-1--0-0--1-1--0-0-|
			   |-1-1--0-0--1-1--1-1-|
			   |-2-2--2-2--2-2--2-2-|
			   |-3-3--3-3--3-3--3-3-|
			   |-3-3--3-3--3-3--3-3-|
			   |--------------------|

Chorus:

  Asus2  Am            F

e---0---0-0---------1-1-1-1-
b---0---1-1---------1-1-1-1-
g---2---2-2---------2-2-2-2-  x 2 then,
d---2---2-2---------3-3-3-3-
a---0---0-0--0------3-3-3-3-
E--------------3-2--1-1-1-1-

 Asus2  Am          F  Fsus2

e---0---0-0---------1----1-
b---0---1-1---------1----1-
g---2---2-2---------2----0-
d---2---2-2---------3----3-
a---0---0-0--0------3----3-
E--------------3-2--1------

This is it listen to the song to get the order enjoy!
Comments