Manic Street Preachers - Australia Chords & Tabs

 

Australia Chords & Tabs

Manic Street Preachers Chords & Tabs

Version: 1 Type: Bass Tab 0 ratings
1 star 2 stars 3 stars 4 stars 5 stars
comments

Australia Bass Tab

NAME:AUSTRALIA
ARTIST: MANIC STREET PREACHERS
TYPE OF TAB: BASS
BY: RHODRI LAWRENCE 

THIS SONG IS AMAZING, BUT THERE ARE NO TABS OUT THERE FOR - UNBELIEVABLE, SO 
I'VE DONE ONE!
ENJOY!

NOTES: No. IN BRACKETS = TIED NOTE - (9)

INTRO:
G|---------|---------|---/9----|---(9)---|---------|---------|---/9----|---(9)---|x2
D|*--------|----2----|---------|---------|---------|----2----|---------|--------*|
A|*--------|---------|---------|---------|---------|---------|---------|--------*|
E|----0----|---------|---------|---------|----0----|---------|---------|---------|

PRE-VERSE (SAME AS CHORUS):
G|---------|---------|---------|---------|---------|---------|---------|---------|
D|---------|---------|---------|-------2-|---------|---------|---------|---------|
A|---------|---------|---------|---------|-0-0-0-0-|-0-0-0-0-|-2-2-2-2-|-2-2-2-2-|
E|-0-0-----|-0-0-----|-0-0-----|--0------|---------|---------|---------|---------|

G|----------|---------|
D|----------|---------|
A|-00-00-00-|-00--0-0-|
E|----------|---------|

VERSE:
G|---------|---------|---------|---------|---------|---------|---------|---------|
D|---------|---------|---------|---------|---------|---------|---------|---------|
A|-4-4-424-|-4-4-4-4-|-3-3-313-|-3-3-3-55|-4-4-424-|-4-4-4-4-|-3-3-313-|-3-3-3-3-|
E|---------|---------|---------|---------|---------|---------|---------|---------|

G|---------|---------|----------|---------|
D|---------|---------|----------|---------|
A|-2-2-2-2-|-2-2-2-2-|-00-00-00-|-00--0-0-|
E|---------|---------|----------|---------|
[ Tab from: http://www.guitartabs.cc/tabs/m/manic_street_preachers/australia_btab.html ]
VERSE

CHORUS:
G|---------|---------|---------|---------|---------|---------|---------|----------|x2
D|*--------|---------|---------|-------2-|---------|---------|---------|---------*|
A|*--------|---------|---------|---------|-0-0-0-0-|-0-0-0-0-|-2-2-2-2-|-2-2-2-2-*|
E|-0-0-----|-0-0-----|-0-0-----|--0------|---------|---------|---------|----------|

G|----------|---------|
D|----------|---------|
A|-00-00-00-|-00--0-0-|
E|----------|---------|

GUITAR SOLO:
G|-----------|---------|-----------|---------|
D|-----------|---------|-----------|---------|
A|-4-4-4p2h4-|-4-4-4-4-|-3-3-3p1h3-|-3-3-3-55|
E|-----------|---------|-----------|---------|

VERSE

CHORUS

MID-SECTION:
G|---------|---------|---/9----|---(9)---|---------|---------|---/9----|---(9)---|
D|---------|----2----|---------|---------|---------|----2----|---------|---------|
A|---------|---------|---------|---------|---------|---------|---------|---------|
E|----0----|---------|---------|---------|----0----|---------|---------|---------|

G|---------|---------|---------|-9p7-9p7-|---------|---------|---------|-------------|
D|--2--0---|--2--0---|--2--0---|---------|--2--0---|--2--0---|--2--0---|-22-22-22-22-|
A|---02-20-|---02-20-|---02-20-|---------|---02-20-|---02-20-|---02-20-|-------------|
E|-0-------|-0-------|-0-------|---------|-0-------|-0-------|-0-------|-------------|

CHORUS

END:
G|----------|---------|---------|
D|----------|---------|---------|
A|-00-00-00-|-00--0-0-|---------|
E|----------|---------|----0----|

THERE YOU GO!
RHODRI LAWRENCE 

Comments