Manic Street Preachers - 4st 7lb Chords & Tabs

 

4st 7lb Chords & Tabs

Manic Street Preachers Chords & Tabs

Version: 1 Type: Tab 0 ratings
1 star 2 stars 3 stars 4 stars 5 stars
comments

4st 7lb Tab

   
Manic Street Preachers: 4st 7lb


Starts with this and loads of distortion

e|------13------13-------13-------13-------13|
B|-------------------------------------------|
G|12-12----12-12---12-12----12-12----12-12---|
D|-------------------------------------------|
A|-------------------------------------------|
E|-------------------------------------------|

e|------12------12-------12-------12-------12|
B|-------------------------------------------|
G|12-12----12-12---12-12----12-12----12-12---|
D|-------------------------------------------|
A|-------------------------------------------|
E|-------------------------------------------|

e|------13------13-------13-------13-------13-12|
B|--------------------------------------------13|
G|12-12----12-12---12-12----12-12----12-12----12|
D|----------------------------------------------|
A|----------------------------------------------|
E|----------------------------------------------|

VERSE
e|---------------------------------|
B|---------------------------------|
G|---------------------------------|
D|-----33----33--------22----22----|
A|---11----11----10--11----11----10|
E|-33----33----33--33----33----33--|

BRIDGE
[ Tab from: http://www.guitartabs.cc/tabs/m/manic_street_preachers/4st_7lb_tab.html ]
e|0-------------1----------1-------0----|
B|1-------------3----------0-------0----|
G|2-------------2----------0-------0----|
D|2-------------0----------0-------2----|
A|0------------------------2-------3----|
E|-------------------------3------------|
  Karen says....weight.....fake....word.

CHORUS
e|------------------------------------------------------------------------------------------------|
B|------------------------------------------------------------------------------------------------|
G|--0--0--0--0--0---0--0--0--0--0---0--0----0--0----0--0----0--0----0--0----0--0----0--0----0--0--|
D|-4--4--4--4--4-4-9--9--9--9--9-7-5--5--5-4--4-4--1--1--1-4--4--4-5--5--5-4--4-4--1--1--1-4--4--4|
A|2--2--2--2--2---7--7--7--7--7---6--6--6-5--5---53--3--3-5--5--5-6--6--6-5--5---53--3--3-5--5--5-|
E|------------------------------------------------------------------------------------------------|
..skinny..   

After the second chorus it goes to

e|---------------|
B|---------------|
G|--0--0--0--0--0|
D|-3--3--3--3--3-|
A|4--4--4--4--4--|
E|---------------|

It ends with this. Although the bass goes C F G, the guitar just repeats 
this over it. 

e|----------------------|
B|--0------0------0-----|
G|----0------0------0---|
D|------2------2------2-|
A|3------3------3------3|
E|----------------------|

and then

e|-------------------------------|
B|--0------1------0-------1------|
G|----2------2------2-------2----|
D|------2------2------2-------2--|
A|0-------0------0------0-------0|
E|-------------------------------|

then it finishes with Am	e|0
				B|1
				G|2	(ring out)	
				D|2
				A|0
				E|X 	

>=-tabbed by Carter-=
Comments