Manfred Mann - Since I Dont Have You Chords & Tabs

 

Since I Dont Have You Chords & Tabs

Manfred Mann Chords & Tabs

Version: 1 Type: Tab 0 ratings
1 star 2 stars 3 stars 4 stars 5 stars
comments

Since I Dont Have You Tab

   
----------------------------------------------------------------------------                 
Since I Don't Have You - Manfred Mann
----------------------------------------------------------------------------
Tabbed by:Jimmie
Email:jimmie_cheetham@hotmail.com

Tuning: Standard

Intro:

e|--3--3--5--6--8----8--6--5--1----1--1----1--1----1--1--------------------|
B|----------------------------1----1--1----1--1----1--1--------------------|
G|----------------------------2----2--2----2--2----2--2--------------------|
D|----------------------------3----3--3----3--3----3--3--------------------|
A|----------------------------3----3--3----3--3----3--3--------------------|
E|----------------------------1----1--1----1--1----1--1--------------------|

Verse:

F              Bb  
I    don't have  plans and schemes   and

F              Bb
I    don't have  hopes and dreams

F6             Bb
I    don't have  anything

Am     Bb       C
Since  I don't  have you

Verse 2:

F              Bb  
I    don't have  the strongest eyes*

F              Bb
I    don't have  just a few happy hours
[ Tab from: http://www.guitartabs.cc/tabs/m/manfred_mann/since_i_dont_have_you_tab.html ]
F6             Bb
I    don't have  anything

Bb       C      F
Since  I don't  have you

Bridge:

Bb            Am 
I  don't have happiness  and I guess

Bb           Am
I never will again

Bb                         Am  
Since you walked out on me in walked old misery   and

G                       C
He's   been there since then

Verse 3:

F              Bb  
I    don't have  love to share

F              Bb
I    don't have  nobody to care

F6             Bb
I    don't have  anything

Bb                  C
Since girl since I, since I don't have you

Outro:

F         Bb
(Oooooooooo)  Why don't you call me sometime

F                            Bb
(Oooo) Because you know that since I don't have you I'm so

F
Blue... Fade

* Questionable lyrics
----------------------------------------------------------------------------
| /  slide up
| \  slide down
| h  hammer-on
| p  pull-off
| ~  vibrato
| +  harmonic
| x  Mute note
============================================================================
Comments