Mandy Moore - Only Hope Chords & Tabs

 

Only Hope Chords & Tabs

Mandy Moore Chords & Tabs

Version: 1 Type: Tab 0 ratings
1 star 2 stars 3 stars 4 stars 5 stars
comments

Only Hope Tab

   
Mandy Moore
"Only Hope"
A walk to remember ost
Tabbed By: Arcervan
E-Mail: arcervan@yahoo.com


Standard tuning (EADGBe)

This song is really tricky to tab because it is all piano but this is what
ive come up with... I think it sounds really close to the real thing...
This is dedicated to Barbie



chords:

C#? - x46644
B?  - x24422
A?  - xx7977
E?  - x77977
Ab? - xx689x
Ab  - 466544
F#  - 244322
Bbm - 688666
A   - 577655
d#m - x68876

Intro...
e|--7-7-7~~~~----------------------------------------------------------|
B|---------10-9--9-7---------------------------------------------------|
G|-------------------9--6--8--9--8--6--5-------------------------------|
D|------7~~~~-----------7~~~--------6~~~-------------------------------|
A|---------------7~~~--------------------------------------------------|
E|---------------------------------------------------------------------|


Verse...       
         C#?              B?           A? - E? - A?         Ab?
e|--------4------|--------2-------|-----7----7-----7--|----------------|
B|------4---4----|------2---2-----|-------------------|------9---------|
G|----6-------6--|----4-------4---|---9----9-----9----|----8-----------|
D|---------------|----------------|--7----------7-----|--6-------------|
A|--4------------|--2-------------|-------7-----------|----------------|
E|---------------|----------------|-------------------|----------------|
   there's a song thats inside of my soul.......

[ Tab from: http://www.guitartabs.cc/tabs/m/mandy_moore/only_hope_tab.html ]
         C#?              B?           A? - E? - A?         Ab?
e|--------4------|--------2-------|-----7----7-----7--|----------------|
B|------4---4----|------2---2-----|-------------------|------9---------|
G|----6-------6--|----4-------4---|---9----9-----9----|----8-----------|
D|---------------|----------------|--7----------7-----|--6-------------|
A|--4------------|--2-------------|-------7-----------|----------------|
E|---------------|----------------|-------------------|----------------|
   it's the one that i've tried to write over and over again...

Chorus:
(pluck in the same fashion... play with the song to get the right timimg...)


     C#?     Ab        F#     F#
So I lay my head back down
       C#?     Ab        F#
and I lift my hands and pray
      Bbm           F#
to be only yours I pray
       Bbm          A.......
to be only your I know now 

your my only hope....


(Verse)
(Chorus)

Fig. 1
e|---------4------7---|
B|-----------4--------|
G|------6------4------|
D|----6---------------|
A|--4-----------------|
E|--------------------|

bridge:

B?             C#?     B?
  I give you my destiny
               C#?     B?
Im giving you all of me
               C#?
I want your symphony
d#m                    Ab
singing in all that I am
        F#        Ab
at the top of my lungs
   F#        Ab
Im giving it back....

(Chorus)

(Fig. 1 , Intro)

Corrections are welcome [arcervan@yahoo.com]
Comments