Mando Diao - Dream Is Over Chords & Tabs

 

Dream Is Over Chords & Tabs

Mando Diao Chords & Tabs

Version: 1 Type: Tab 0 ratings
1 star 2 stars 3 stars 4 stars 5 stars
comments

Dream Is Over Tab

   
-------------------------------------------------------------------------
Song:The dream is Over
Artist:Mando Diao
Album:Hurricane Bar
Tabber:Alexthebeatle
-------------------------------------------------------------------------

-INTRO:

|------------------------------------|
|------------------------------------|
|------------------------------------|
|------1h2------1h2----1h2-----------|
|--3-3------3-3------3------1---1----|
|-----------------------------3------|

|------------------------------------|
|------------------------------------|
|------------------------------------|
|------1h2------1h2----1h2-----------|
|--3-3------3-3------3------1---1----|
|-----------------------------3------|

(guitar 1 enters with the chords):

   C                        F Bb
|------------------------------------|
|------------------------------------|
|------------------------------------|
|------1h2------1h2----1h2-----------|
|--3-3------3-3------3------1---1----|
|-----------------------------3------|


   C                        F Bb
|------------------------------------|
|------------------------------------|
|------------------------------------|
|------1h2------1h2----1h2-----------|
|--3-3------3-3------3------1---1----|
|-----------------------------3------|

-VERSE:

C               F
Baby, why'd you leave me

       C               F
On the airport with my fingers

    Em                   F                G
Put together while I was praying for your lover
[ Tab from: http://www.guitartabs.cc/tabs/m/mando_diao/dream_is_over_tab.html ]
         C                   F
I wasn't keen on love at the moment

         C                      F
I didn't even like your modesty hairstyle

           Em             F            G
But then I froze when you left me for another

-----------------------------------------------------------------------

  C                   F
   Don't tell me this dream is over

       C          Em         F    G
   And don't stop telling me your love

  C                   F
   Don't tell me this dream is over

       C          Em         F       G          (INTRO CHORDS AND RIFF AGAIN)
   And don't stop burning my eyes my bird of blue

----------------------------------------------------------------------


Well I waited on the corner of your street
'Cause you're a street cat and I'm a mad dog
And this night is ours whether you want it or you don't
Well I picked you flowers and wrote you a poem
About a guy who owned the world but no women
Maybe you'll see, maybe someday that I might end you
I'll do you ill

Don't tell me this dream is over
And don't stop telling me your love
Don't tell me this dream is over
And don't stop burning my eyes my bird of blue

I can't live without you breath by my past babe
I can't breath without your life by my future
I can't see clear without
your teardrops in my eyes

Don't tell me this dream is over
And don't stop telling me your love
Don't tell me this dream is over
And don't stop burning my eyes my bird of blue

Don't tell me this dream is over
Please don't tell me this dream is over now
Comments