Mando Diao - Clean Town Chords & Tabs

 

Clean Town Chords & Tabs

Mando Diao Chords & Tabs

Version: 1 Type: Tab 0 ratings
1 star 2 stars 3 stars 4 stars 5 stars
comments

Clean Town Tab

   
-------------------------------------------------------------------------
Song:Clean Town
Artist:Mando Diao
Album:Hurricane Bar
Tabber:Alexthebeatle
-------------------------------------------------------------------------

-INTRO:

   Am                     C       Cm    "we're gonna ....."
|------------0------------0-------3-----|
|--1------------1---------1-------4-----|
|--2-------2--------------0-------5-----|
|--2----------------------2-------5-----|
|--0----------------0--2--3-------3-----|
|---------------------------------------|


   G                              Em       C   Cm
|-----------------------------------------------------|
|-----------------------------------------------------|
|--/7---9-9---7--5-7-5--7-7--9-9--/4--4-5--2---2s5----|
|-----------------------------------------------------|
|-----------------------------------------------------|
|-----------------------------------------------------|


-VERSE:

  G                      Em
   You wanna worship its feelings

 C                              D                G
   The ones who's squeezing the shame from every man

                         Em          C                  Cm
   And if mama says it's dinner time, if she ruins your love, run away

 Em                 Bm
   So you live in a prison

 Em                       Bm
   So you're wasting your life
[ Tab from: http://www.guitartabs.cc/tabs/m/mando_diao/clean_town_tab.html ]
 Em                C          D
   On a system you never will understand


   D                                 G
   Are you the one I dreamed of. Man!


-----------------------------------------------------------------------
 G                   Em
   Clean town if you want to get away

 G                             Em
   You pack your cases and you hope for a better day

   C                  Cm                        G
   Mama's alright she said she didn't want you love

 G                   Em
   Clean town if you want to get away,

 G                             Em
   you pack your cases and you hope for a better day

   C                    Cm                             G  -  Em - C - Cm
   Johnny's alright she said she didn't want your......LOVE!!!
--------------------------------------------------------------------------


-VERSE 2:(same chords)

Won't you walk down the main street
Take the bridge over never ending rails
And even if you're falling down
That's an open door to the outside world
So you live in a bubble
So you've wasting your life
On a system you never will understand
Are you the one I dreamed of. Man!

Clean town if you want to get away... Y

ou can drive to the east cost
Disappear for a while
Put the band-echo on, then we'll give him a ride
Are you the one I dreamed of. Man!

Clean town if you want to get away...

Won't you get away...

-(IN THE LAST PART OF THE SONG, WHERE GUSTAF SINGS 'oh oh oh oh.....'
 JUST PLAY THE SAME CHORDS AS IN THE CHORUS)
Comments